#1
if anyone has licks that hendrix used for his rythm playing, please may i get some

heres tab for a template

e|----------------------------------------
B|----------------------------------------
G|----------------------------------------
D|----------------------------------------
A|----------------------------------------
E|----------------------------------------

(Just an e.g btw)
e|----------------------------------------
B|------5h8p5---------------------------
G|--------------5--------------------------
D|-----------------7p5--7--5------------
A|----------------------------7-----------
E|-5-------------------------5-------------
"Been Dazed And Confused For So0 LoNg ItZ n0T Tru3"

Fender LoneStar Strat.
Peavy VYPYR.