#1
Well, this is actually a chord progression, but o well...
it goes *dont play the X
E---0----------------------------------------------------------------------
B---1-----------------------------------------------------------------------
G---2---(play that chord 6 or times)-------------------------------------------
D---2-------------------------------------------------------------------------
A---0--------------------------------------------------------------------------
E---X-------------------------------------------------------------------------

Then *same tuning as before!! dont feel like writing EADGBE... lol


-0----------------------------------------------
-1---------------------------------------------
-0--------------------------------------------
-2-------------------------------------------
-3----------------------------------------
-X-----------------------------------------

--3------------------------------
--3-----------------------------------
--0------------------------------------
--0-------------------------------------
--2-----------------------------------
--3--------------------------------------


Any help in GREATLY appreciated, and keep rocking!!!
Current Gear:
Fender Squire Strat
DOD Death Medal Distortion pedal
ESP LTD H-300 *YEA SON*
Fender Squire amp *BOO*
#3
was that sarcasm??? cause i actually want help, not sarcasm.
Current Gear:
Fender Squire Strat
DOD Death Medal Distortion pedal
ESP LTD H-300 *YEA SON*
Fender Squire amp *BOO*
#5
No need for sarcasm or anykind of non-constructive critic.

don: unfortunately all good sounding 3-chord progressions made from basic major and minor chords have already been invented. Which doesn't mean noone can use such chord progressions anymore, but you have to make some interesting rhytm and/or melody to it.
#6
Ok. thanks a million for helpin me!!!
Current Gear:
Fender Squire Strat
DOD Death Medal Distortion pedal
ESP LTD H-300 *YEA SON*
Fender Squire amp *BOO*
#7
for future reference, you didn't give near enough information for help.

You gave us three chords and, like said before, three very common chords at that.

You need to develop some serious originality if you want this to get noticed. Either that or you need to create a very developed original melody over it.
...Nothing you've ever...
...Planned on ever turned out...
...The way you planned...


...You're still disappointing them...