#1
Hey guys, I bought Bachman Cumming's Jukebox CD a couple years ago, and have been looking for a tab for I'm Happy Just To Dance With You. Its an acoustic, jazzy version of the Beatles's original version.

EDIT: I tried to find a clip on the internet and could only find a small clip on amazon. Here it is:

http://www.amazon.com/Jukebox-Bachman-Cummings/dp/B000R5HEIO

I have the song on iTunes, but can't figure out an easy way to get it on the internet to share with everyone

Edit 2: I uploaded the song onto youtube. Here's the link
http://www.youtube.com/watch?v=Wr8dXeHDddM
e|----------5-------7-5h7p5---5--
B|-------5----8p5-------------8---8p5--
G|-5h6-----------------------------------7b9r--p5---5b--
D|-----------------------------------------------------7-----7-7~~~
Last edited by AC/DC10 at Aug 14, 2009,
#2
Well, trying to figure it out from the sample here..since I really don't know the first part of this version, I'll go kinda the same way as the beatles...

Tuning; standard with capo on 1st fret

a few chords:
Am7: x02010
Gmaj7:3x443x
Cmaj7:x35453
Bm7: x24232

intro:
Em Am7 B7 (2)

Em Am7 B7 Am7 D7 Gmaj7 (D7)

Verse:
Gmaj7 Em Am7 D7 (2)
Cmaj7 Bm7 Am7 D7 Gmaj7 (D7)
#3
Thanks alot! I think the intro sounds great, but I don't know if the D7 fits in? I will try to upload the full song to the internet somehow

But thank you for getting me started!

Edit: I uploaded it to youtube!
e|----------5-------7-5h7p5---5--
B|-------5----8p5-------------8---8p5--
G|-5h6-----------------------------------7b9r--p5---5b--
D|-----------------------------------------------------7-----7-7~~~
Last edited by AC/DC10 at Aug 14, 2009,