#1
Just the simple guitar riff that is playing in the background throughout most of the song. Thank you.
#2
the() notes are optional (it sounds better with them)

e|--------------------------------------------------------------------------------------4-|
B|-----2--------2--------------------5------4---------5-4------7----------6-----7------|
G|--------------2--------------------6----------4-------------------6--------------------|
D|---------4-------------------7-------------------4--------------------6----------------|
A|--------------------------------------------(2)-----------------(4)-----------------------|
E|-----(2)-----------2-4-5---------------------------------------------------------------|

e|-----5--------5--------------------------------------------------------------------------|
B|---------------2-------------------5------4---------5-4-------7--7--6-----------------|
G|----------2------------------------6----------4------------------------------------------|
D|----------------------------7--------------------4---------------------------------------|
A|--------------------------------------------(2)-----------------(4)-------------------------|
E|-----(2)-----------2-4-5-----------------------------------------------------------------|
Last edited by crmrz at Aug 13, 2009,
#3
Wow thanks man that would've taken me forever. Did it take you long to sound out or did you find the elusive tab?