#1
Hi everyone!

This is my first post here and to be honest, it's my final hope! ^^' I'm learning the song Cry of the Blackbirds by Amon Amarth and I've almost nailed the back-up guitar but I can;t find the tab of a certain riff:

http://www.youtube.com/watch?v=2BXt-g4euqA

0.48 - 1.10

It's the part that's the same speed as the drums. Sounds easy but I can't figure it out myself and I've looked everywhere...

PLEASE UG people HELP!
#2
e|----------3-------------2-----------0------------2------------3-------------|
B|-------0-------------0-----------0-----------0------------0------0----------|
G|--------------------------------------------------------------------------------| (2x)
D|---2-----------2------------2-----------2-------------2---------------------|
A|--------------------------------------------------------------------------------|
E|--------------------------------------------------------------------------------|


e|---------------------------------------------------------------------------|
B|-----------3-----------3------------1-----------3-------------1---------|
G|--------0-----------0------------0-----------0-------------0----0-------|(2x)
D|----------------------------------------------------------------------------|
A|----3-----------3------------3-----------3-------------3-----------------|
E|----------------------------------------------------------------------------|
#3
Thanks for your reply, but I think that's the part that the lead guitar plays! To me it sound something like

00000000000000000000022222222222222222221111111111111111111111

*Random selected numbers but that kind of tab*

And not like the tuuh tuuh tuuh duuh duuh duuh etc. riff

The same back up riff start at 2.30 in the video (and eventhough it's short) it clearly shows the guitar player on the left that he is simply hitting 1 note but fast, and that's what I hear too.

Anyone?