#1
HI guys, I just wanted to know what you thought of this tab? First one that I have done.
Any suggestions?


Intro to the song... Pretty easy picking sequence using your index and ring fingers.
Open E notes played very lightly here, while the rest is normal volume.
This is my first tab! If there are any mistakes send me an email.
/ slide up
\ slide down
h hammer-on
p pull-off
~ vibrato
+ harmonic
x Mute note
b bend

E------5-----0-4------5-----0-4---------------------------------
B--2------2-3-------2---2-3-------------------------------------
G---------------------------------------------------------------
D---------------------------------------------------------------
A---------------------------------------------------------------
E----------------0---------------0------------------------------

I learned this part from ear, there are different ways to play this part.

E---------------------------------------------------------------
B------------2-5-2---0-2-0-2p0-------2-2------------------------
G------4-2-4------------------2---------------------------------
D--2-4---------------------------4-2----------------------------
A---------------------------------------------------------------
E---------------------------------------------------------------

E---------------------------------------------------------------
B------------2-5-2---0-2-0-2p0-------2-2------------------------
G------4-2-4------------------2---------------------------------
D--2-4---------------------------4-2----------------------------
A---------------------------------------------------------------
E---------------------------------------------------------------

E---------------------------------------------------------------
B----0-2-0-------2-0---2h3h2p0--------2-2-----------------------
G--2-------2---2--------------2---------------------------------
D------------4-------------------2-4-2--------------------------
A---------------------------------------------------------------
E---------------------------------------------------------------

E ---------------------------------------------------------------
B -----2-00-----2-0----2-0--0------2-2---------------------------
G -2-4-----22--2-----------2-2-----------------------------------
D -----------44------2---------4-2-------------------------------
A ---------------------------------------------------------------
E ---------------------------------------------------------------


E------5-----0-4------------------------------------------------
B--2------2-3---------------------------------------------------
G---------------------------------------------------------------
D---------------------------------------------------------------
A---------------------------------------------------------------
E---------------------------------------------------------------


E---------------------------------------------------------------
B------------2-5-2---0-2-0-2p0-------2-2------------------------
G------4-2-4------------------2---------------------------------
D--2-4---------------------------4-2----------------------------
A---------------------------------------------------------------
E---------------------------------------------------------------

E---------------------------------------------------------------
B------------2-5-2---0-2-0-2p0-------2-2------------------------
G------4-2-4------------------2---------------------------------
D--2-4---------------------------4-2----------------------------
A---------------------------------------------------------------
E---------------------------------------------------------------

E---------------------------------------------------------------
B----0-2-0-------2-0---2h3h2p0--------2-2-----------------------
G--2-------2---2--------------2---------------------------------
D------------4-------------------2-4-2--------------------------
A---------------------------------------------------------------
E---------------------------------------------------------------

E ---------------------------------------------------------------
B -----2-00-----2-0----2-0--0------2-2---------------------------
G -2-4-----22--2-----------2-2-----------------------------------
D -----------44------2---------4-2-------------------------------
A ---------------------------------------------------------------
E ---------------------------------------------------------------

PIano Solo here... Here is how you play it on a guitar.

E-----------9-----12p7h10--12----------------------9-7--9---10--12--15---
B-----10h12----10-------------12-----12---7-9-10-----------------------
G---------------------------------9------------------------------------
D----------------------------------------------------------------------
A--0-------------------------------------------------------------------
E----------------------------------------------------------------------


E-14-12-14----14----14----13p12--13-------12-10-12-9-12----12----12p10--12-9-----
B----------15----14----12-----------15-12---------------12----10-------------12--
G--------------------------------------------------------------------------------
D--------------------------------------------------------------------------------
A--------------------------------------------------------------------------------
E--------------------------------------------------------------------------------

E-----------9-----12p7h10--12----------------------9-7--9---10--12--15-
B-----10h12----10-------------12-----12---7-9-10-----------------------
G---------------------------------9------------------------------------
D----------------------------------------------------------------------
A--0-------------------------------------------------------------------
E----------------------------------------------------------------------

E-12--9h10p12--9----------------------------------------
B-----------------10---9---10h9h7-----------------------
G--------------------9-------------9h7h6----------------
D----------------------------------------9p7------------
A-------------------------------------------------------
E-------------------------------------------------------

And now we go back here to the parts from the beginning sequence.

E---------------------------------------------------------------
B----0-2-0-------2-0---2h3h2p0--------2-2-----------------------
G--2-------2---2--------------2---------------------------------
D------------4-------------------2-4-2--------------------------
A---------------------------------------------------------------
E---------------------------------------------------------------

E ---------------------------------------------------------------
B -----2-00-----2-0----2-0--0------2-2---------------------------
G --2------22--2-----------2-2-----------------------------------
D -----------44------2---------4-2-------------------------------
A ---------------------------------------------------------------
E ---------------------------------------------------------------

New part to end it.

E ----5-----0-4---9-7-5h7h5-2-0-9-9----5-----0-4--4-2-4-4/5------
B --2---2-3--------------------------2---2-3---------------------
G ---------------------------------------------------------------
D ---------------------------------------------------------------
A ---------------------------------------------------------------
E ---------------------------------------------------------------