#5
Breakin Free (TAB) a basic outline... should help ya

Guitar tuning:

Eb
Bb
Gb
Db
Ab
Db (C# is same as Db)

guitar 1 (repeat 4 times)
---------------------------------------------------------
----6-5----------6-5------------3---3---3---5---5---5---
--------5-7---5------5-7---5--3---3---3---5---5---5-----
------------7-------------7------------------------------
---------------------------------------------------------
---------------------------------------------------------

power chords

-----------------------------------------------
-----------------------------------------------
-----------------------------------------------
-----------------------------------------------
----0---3---10---0---3---8--------------------
----0---3---10---0---3---8--------------------