#1
New guitar player, been playing for 6-8 months I guess.

I'm learning Overdose by AC/DC, but I had some questions about the solo.

http://www.ultimate-guitar.com/tabs/a/ac_dc/overdose_solo_tab.htm
e -------------------------------------------------------------------|
b -------------------------------------------------------------------|
g -------------------------------------------------------------------|
D --7-9---------7---------7-9-7---6-7-6-4-6-4--2-------2-4-4-2-4-4---|
A -------------------------------------------------------------------|
E -------------------------------------------------------------------|

e--------------------------------------------2---------------------------------|
b----------------------------2--3--5--3---5------3---5----(6)-----5----5----7--|
g----------1----2-----1--2-4---------------------------------------------------|
D--4---2-4---------------------------------------------------------------------|
A------------------------------------------------------------------------------|
E------------------------------------------------------------------------------|



It's not noted that I should be playing this using hammer ons and pull offs.

Should I be just picking this stuff? Should I try mixing in some hammer ons and pull offs where I think it might make sense?

I guess I'm not too sure whether I should be picking or not here?
#2
well, its not a good tab. the tab should tell you. but cuz it doesn't, do whatever sounds best.
Quote by AA00P
Listen to the man, he's Jewish.
#3
If you think a hammer on/pull off fits nicely in there, do it.
Marshall 50 Watt Vintage Modern
Marshall 1960AV
Fender Custom Shop Strat
Ibanez Prestige RG3120
Squier Classic Vibe Telecaster
Strymon Mobius
TC Polytune
TC Flashback
Mad Professor LGW
Fulltone OCD
JOYO Vintage OD
Behringer EQ700
#4
Listen to the original and do what they do.
Quote by thsrayas
Why did women get multiple orgasms instead of men? I want a river of semen flowing out of my room to mark my territory.

You can play a shoestring if you're sincere
- John Coltrane
#6
Thanks. So personal preference is probably the way to go in this case... Thanks!
#7
Quote by 7even
Listen to the original and do what they do.

this
Gotta keep my eyes from the circling skies...
tounge tied and twisted just an earth bound misfit...

>CRYPTIC METAPHOR<


Quote by ilikepirates
ilikeyou.

not hated
#8
Quote by bass-man9712
this



Yeah that was my first idea but the reality is that I'm just not that skilled at hearing the difference (yet?). Still a super-noob.
#9
Quote by Life Is Brutal
Irregardless if picked or not.

Please kill yourself.


and TS, if the tab doesn't specifically say what to do then do what sounds best and is most comfortable.
Quote by Trowzaa
I immediately clenched my butthole after reading that...