#1
Hello, all. I have recently Powertabbed the end sweep-solo for Selkies: The Endless Obsession by Between the Buried and Me and was wanting an opinion on it. I have submitted it to UG but do not want to wait for it to be uploaded to see what people have to say about it. Is there any way that I can post it here so I can get an opinion?

BTW, I'm quite sure that it is perfect.
Are You a PROG-HEAD? I am.

Quote by z4twenny
if i wanna fart into a mic, run it thru delay and an auto tuner set to the key of E and set it to a drum beat i can and its music.
#2
i guess youd just have to tab it out
Quote by Spaztikko
Imagine the part of the ballsack where occasionally old poo sticks to the pubes and hardens, and you then have to pull out, but as an amp. That's an MG.


Greatest quote of all time?

I think so...
#3
 4/4
  Gtr I
   Q.                          E        Q                 E        E
|--------------------------------------------------------------------------|
|--------------------------------------------------------------------------|
|--7---------------------------7--------5-----------------5--------5-------|
|--5---------------------------5--------5-----------------5--------5-------|
|--3---------------------------3--------3-----------------3--------3-------|
|--------------------------------------------------------------------------|
|
| Gtr II
|                     T                 T
|  |-------3-------|  |------3-------|  |------3-------|  |------3-------|
|  S   S  S  S  S  S  S  S  S  S  S  S  S  S  S  S  S  S  S  S  S  S  S  S
|--------------12h15-22p15p12----12h15-20p15p12----------------------12h15s|
|-----------13----------------13----------------13----------------13-------|
|--------12----------------------------------------12----------12----------|
|-----14----------------------------------------------14----14-------------|
|-15-----------------------------------------------------15----------------|
|--------------------------------------------------------------------------|


   Q.                         E        Q                 E        E
|-------------------------------------------------------------------------|
|-------------------------------------------------------------------------|
|--7--------------------------7--------5-----------------5--------5-------|
|--5--------------------------5--------5-----------------5--------5-------|
|--3--------------------------3--------3-----------------3--------3-------|
|-------------------------------------------------------------------------|
|
|  |------3-------|  |------3-------|  |------3-------|  |------3-------|
|  S  S  S  S  S  S  S  S  S  S  S  S  S  S  S  S  S  S  S  S  S  S  S  S
|-19p15-------------------------15-19s20s19p15----------------------15-19-|
|-------17-------------------17----------------17----------------17-------|
|----------16-------------16----------------------16----------16----------|
|-------------17-------17----------------------------17----17-------------|
|----------------19-19----------------------------------19----------------|
|-------------------------------------------------------------------------|


   Q.                         E        Q                 E        E
|-------------------------------------------------------------------------|
|-------------------------------------------------------------------------|
|-------------------------------------------------------------------------|
|-10-------------------------10--------9-----------------9--------9-------|
|--7--------------------------7--------7-----------------7--------7-------|
|--5--------------------------5--------5-----------------5--------5-------|
|
|  |------3-------|  |------3-------|  |------3-------|  |------3-------|
|  S  S  S  S  S  S  S  S  S  S  S  S  S  S  S  S  S  S  S  S  S  S  S  S
|-17p12----------12-17p12----------------------------12-17p12----------12-|
|-------13----13----------13----------------------13----------13----13----|
|----------14----------------14----------------14----------------14-------|
|-------------------------------14----------14----------------------------|
|----------------------------------15----15-------------------------------|
|-------------------------------------17----------------------------------|


   Q.                         E        Q                 E        E
|---------------------------------------------------------------------------|
|---------------------------------------------------------------------------|
|---------------------------------------------------------------------------|
|-10-------------------------10--------9-----------------9--------9---------|
|--7--------------------------7--------7-----------------7--------7---------|
|--5--------------------------5--------5-----------------5--------5---------|
|
|  |------3-------|  |------3-------|  |------3-------|  |------3-------|
|  S  S  S  S  S  S  S  S  S  S  S  S  S  S  S  S  S  S  S  S  S  S  S  S
|-15h19p15----------------------15-19s20s19-15----------------------15-19s==|
|----------17----------------17----------------17----------------17---------|
|-------------16----------16----------------------16----------16------------|
|----------------17----17----------------------------17----17---------------|
|-------------------19----------------------------------19------------------|
|---------------------------------------------------------------------------|


   Q.                         E        Q                 E        E
|-------------------------------------------------------------------------|
|-------------------------------------------------------------------------|
|--2--------------------------2--------2-----------------2--------2-------|
|--3--------------------------3--------3-----------------3--------3-------|
|--3--------------------------3--------3-----------------3--------3-------|
|--1--------------------------1--------1-----------------1--------1-------|
|
|  |------3-------|  |------3-------|  |------3-------|  |------3-------|
|  S  S  S  S  S  S  S  S  S  S  S  S  S  S  S  S  S  S  S  S  S  S  S  S
|-20p17----------17-20p17----------------------------17-20p17-------------|
|-------18----18----------18----------------------18----------18----------|
|----------17----------------17----------------17----------------17-------|
|-------------------------------19----------19----------------------19----|
|----------------------------------20-15h20----------------------------20-|
|-------------------------------------------------------------------------|


   Q.                         E        Q                 E E
|--------------------------------------------------------------|
|--------------------------------------------------------------|
|--4--------------------------4--------4-----------------4-4---|
|--5--------------------------5--------5-----------------5-5---|
|--5--------------------------5--------5-----------------5-5---|
|--3--------------------------3--------3-----------------3-3---|
|
|  |------3-------|  |------3-------|  |------3-------|
|  S  S  S  S  S  S  S  S  S  S  S  S  S  S  S  S  S  S  Q
|----------------19-22p19----------19-22p19--------------------|
|-------------20----------20----20----------20-----------------|
|----------19----------------19----------------19--------------|
|-------21----------------------------------------21-----------|
|-17h22----------------------------------------------22-17-----|
|--------------------------------------------------------------|


   Q.                          E        Q                 E        E
|--------------------------------------------------------------------------|
|--------------------------------------------------------------------------|
|--------------------------------------------------------------------------|
|-10--------------------------10--------9-----------------9--------9-------|
|--7---------------------------7--------7-----------------7--------7-------|
|--5---------------------------5--------5-----------------5--------5-------|
|
|  |-------3-------|  |------3-------|  |------3-------|  |------3-------|
|  S   S  S  S  S  S  S  S  S  S  S  S  S  S  S  S  S  S  S  S  S  S  S  S
|-20--20-20-17-17-17-12-12-12----------------------------------------------|
|-----------------------------13-13-13-------------------------------------|
|--------------------------------------14-14-14----------------------------|
|-----------------------------------------------14-14-14-------------------|
|--------------------------------------------------------15-15-15----------|
|-----------------------------------------------------------------17-17-17-|


   Q.                          E        Q                 E        E
|----------------------------------------------------------------------------|
|----------------------------------------------------------------------------|
|--7---------------------------7--------7-----------------7--------7---------|
|--7---------------------------7--------7-----------------7--------7---------|
|--5---------------------------5--------5-----------------5--------5---------|
|--5---------------------------5--------5-----------------5--------5---------|
|
|  |-------3-------|  |------3-------|  |------3-------|  |------3-------|
|  S   S  S  S  S  S  S  S  S  S  S  S  S  S  S  S  S  S  S  S  S  S  S  S
|-----------------13-19p13----------13-19p13----------------------------13s==|
|--------------15----------15----15----------15----------------------15------|
|-----------16----------------16----------------16----------------16---------|
|--------17----------------------------------------17----------17------------|
|-----17----------------------------------------------17----17---------------|
|-19-----------------------------------------------------19------------------|


There is more. It would not let me enter more than 10,000 characters.
Are You a PROG-HEAD? I am.

Quote by z4twenny
if i wanna fart into a mic, run it thru delay and an auto tuner set to the key of E and set it to a drum beat i can and its music.
#4
Anyone? I just want to know if other people think it is accurate, which I think it is.
Are You a PROG-HEAD? I am.

Quote by z4twenny
if i wanna fart into a mic, run it thru delay and an auto tuner set to the key of E and set it to a drum beat i can and its music.