#4
it doesnt seem hard. Took me a damn long time to get the mp3 to play. But ill get on that tonight.
#6
I have this tabbed up to about 3:20
Sorry it looks so bad, if you add me as a friend i can email it to you tomrrow
e|---------------------------------------------------|----------------------|
B|---------------------------------------------------|----------------------|
G|---------8-10-10b(12)~~ -8b(9.5)r8-8h12p8-(Divebomb)-|--|
D|--8/10-------------------------------------------|----------------------|
A|---------------------------------------------------|----------------------|
E|---------------------------------------------------|----------------------|

e|---------------------------------------------------------------------------|
B|--11b(13)r11-11b(13)r11-11b(13)r11~~-9h11p9~~-9b(10.5)r9-9b(10.5)r9~~------|
G|---------------------------------------------------------------------------|
D|---------------------------------------------------------------------------|
A|---------------------------------------------------------------------------|
E|---------------------------------------------------------------------------|

e|--/15-16-18-18b(20)-18-----------------------------------------------------|
B|------------------------------16~~--16b(18)r16-(divebomb)-18b(20)~~--18~~---------|
G|---------------------------------------------------------------------------|
D|---------------------------------------------------------------------------|
A|---------------------------------------------------------------------------|
E|---------------------------------------------------------------------------|

e|----------------------|----------------18-20-20-20b(23)~~-----------------------------|
B|--16h18~~--16h18p16/0-|--16------------------------------------------------|
G|----------------------|----------------------------------------------------|
D|----------------------|----------------------------------------------------|
A|----------------------|----------------------------------------------------|
E|----------------------|----------------------------------------------------|
Last edited by fadetoblack84 at Aug 17, 2009,
#8
I am trying to play what you have there. I am not too good at reading tab...what's B and R stands for? Anyway, if u could, send me the GP3 file so I can compare my playing to the computer.
#9
lol ok. I dont have either of those unfortunately, but i need to get guitar pro. And b = bend, r= release the bend.
GP3? lol idk what that is, what is it?
#11
oh, well, ill look into getting that in the near future and putting this tab into it if it'll help... and itd be nice to have those programs anyway. How much did it cost?
#13
e|---------------------------------------------------|----------------------|
B|---------------------------------------------------|----------------------|
G|---------8-10-10b(12)~~ -8b(9.5)r8-8h12p8-Divebomb-|----------------------|
D|--8/10---------------------------------------------|----------------------|
A|---------------------------------------------------|----------------------|
E|---------------------------------------------------|----------------------|

e|---------------------------------------------------------------------------|
B|--11b(13)r11-11b(13)r11-11b(13)r11~~-9h11p9~~-9b(10.5)r9-9b(10.5)r9~~------|
G|---------------------------------------------------------------------------|
D|---------------------------------------------------------------------------|
A|---------------------------------------------------------------------------|
E|---------------------------------------------------------------------------|

e|--/15-16-18-18b(20)-18-----------------------------------------------------|
B|------------------------------16~~--16b(18)r16-(divebomb)-18b(20)~~--18~~--|
G|---------------------------------------------------------------------------|
D|---------------------------------------------------------------------------|
A|---------------------------------------------------------------------------|
E|---------------------------------------------------------------------------|

e|----------------------|----------------18-20-20-20b(23)~~------------------|
B|--16h18~~--16h18p16/0-|--16------------------------------------------------|
G|----------------------|----------------------------------------------------|
D|----------------------|----------------------------------------------------|
A|----------------------|----------------------------------------------------|
E|----------------------|----------------------------------------------------|


Fixed it for you
Quote by Carmel
You are a redeeming feature for the UG Swedish population.


All-riiight.
#16
Quote by whohasaquestion
Thanks people. Now only if I could find an electric guitar to play this on.


Here have mine.