#1
Ok, so i need help in just this one part in WTTJ. its the really fast part right before the vocals begin, heres the tab im using. tell me where it is please if its in there already, i cant find it for the life of me!!!!

http://www.911tabs.com/link/?3674542

also, if you dont know which part im talking about, heres a cover to hear which part, its at 0:39 to 0:40 (lol so short) thanks!

http://www.youtube.com/watch?v=fSwpWoabreo
Gear
Fender MIM hss strat 1997
Marshall Class 5
Line 6 Floor Pod Plus
OCD drive

I love classic rock.
#2
its in guitar 2

Gtr.2:
E|--------------------------------------------|-------------------------| /
B|--------------------------------------------|-------------------------|
G|-7fb5-----7--5hb----------------------------|-------------------------| /
D|-------7---------7-5------------------------|-------------------------|
A|----------------------7--6--53--5--3-------|-0-0-----0-0-------------| /
E|---------------------------------------5--3-|-----3hb-----3hb--2--0-0-|

i
-----
Peavey 6505+ w/ BG412F
B.C rich platinum pro w/ EMG 81&85
-----
#3
Quote by JanB
its in guitar 2

Gtr.2:
E|--------------------------------------------|-------------------------| /
B|--------------------------------------------|-------------------------|
G|-7fb5-----7--5hb----------------------------|-------------------------| /
D|-------7---------7-5------------------------|-------------------------|
A|----------------------7--6--53--5--3-------|-0-0-----0-0-------------| /
E|---------------------------------------5--3-|-----3hb-----3hb--2--0-0-|

i

Are you sure? That doesn't look right.
Last edited by Beerad1337 at Aug 20, 2009,
#4
yeah, i tried that, its not it.
Gear
Fender MIM hss strat 1997
Marshall Class 5
Line 6 Floor Pod Plus
OCD drive

I love classic rock.
#5
so no one knows where to find it??
Gear
Fender MIM hss strat 1997
Marshall Class 5
Line 6 Floor Pod Plus
OCD drive

I love classic rock.
#6
E|-------------------------------------5--5-------------|
B|-----------------------3---5-----5hb----5hb---3---|
G|----------------2--4------------------------------4\-|
D|---------2--4-----------------------------------------|
A|--2--4------------------------------------------------|
E|-------------------------------------------------------|

this sounds good to
eb|----------------------------------|----------------------------5--------|
Bb|------------------------------------|-------------------3-5--5b-----3-----|
Gb|--x-11-----x-9--------------------|-------------2-4---------------------|
Db|--x--9-----x-7---x-9-----7----2--|-------2-4---------------------------|
Ab|-------------------x-7-----5----0--|--2-4--------------------------------|
Eb|---------------------------------------|----------------------------------7\-|