#1
http://myspace.com/alovelikepi

someone PLEASE tab out from 0:20 - 0:38 of the song "Innocent Man". It doesn't sound hard, but I can't make it out. This is like my favorite song right now and it would mean a lot to me! thanks!
#2
e|---------3-------3-------|----3--6----3--6-----3-|-----5--8-----5--8----5------|
B|------4-------4-------4-|--4-------4--------4-----|--6--------6--------6---------|
G|---5-------5-------5----|---------------------------|-------------------------------|
D|--------------------------|--------------------------|--------------------------------|
A|--------------------------|--------------------------|--------------------------------|
E|--------------------------|--------------------------|--------------------------------|

e|-------3--------3------------------------------------------------------------|
B|----4----4---4---4-------------------------------------------------------------|
G|-5---------5-----------------------------------------------------------------|


i think this is it. Hope it helps. i could put this into tuxguitar if you wanted. I just made it quick for ya.
Last edited by fadetoblack84 at Aug 20, 2009,
#3
Quote by fadetoblack84
e|---------3-------3-------|----3--6----3--6-----3-|-----5--8-----5--8----5------|
B|------4-------4-------4-|--4-------4--------4-----|--6--------6--------6---------|
G|---5-------5-------5----|---------------------------|-------------------------------|
D|--------------------------|--------------------------|--------------------------------|
A|--------------------------|--------------------------|--------------------------------|
E|--------------------------|--------------------------|--------------------------------|

e|-------3--------3------------------------------------------------------------|
B|----4----4---4---4-------------------------------------------------------------|
G|-5---------5-----------------------------------------------------------------|


i think this is it. Hope it helps. i could put this into tuxguitar if you wanted. I just made it quick for ya.

Awesome. sounds pretty good.

thank you so much!!!