#1
Could somebody tab out a song from Children 18:3's eponymous album? While any of the songs will do it for me, I'm looking for tabs for Search Warrant and the solo for Time & Wasted Bullets. I'm also looking for bass tabs for the songs All My Balloons, LCM, and Time & Wasted Bullets.
#2
This is what I came up with, let me know if there's any confusion/disagreements.
Have fun with it! Children 18:3 is an awesome band and even more amazing live.
Time and Wasted Bullets solo:

e-|------------------------------------------------11-10-8-13-11-10-17br-17-15--|
b-|--------------------------------------6--------------------------------------|
g-|--6br-5---5-5br-5-------------------5---8-7-5-7------------------------------|
d-|--------8---------8-5---5-------5-8------------------------------------------|
a-|----------------------8-----5-8----------------------------------------------|
E-|--------------------------8--------------------------------------------------|


e-|--11-10-8-13-11-10-17br-17-15-13-10-8-7br-7br-7br-9br(8x)-6-8--|
b-|---------------------------------------------------------------|
g-|---------------------------------------------------------------|
d-|---------------------------------------------------------------|
a-|---------------------------------------------------------------|
E-|---------------------------------------------------------------|

e-|---------------8-13-11-10-8---------------------------------------8----8-8----8-8----8br(5x)--|
b-|----------8-11--------------11-8--------------8-11-8---------8-11---11-----11-----11----------|
g-|-----7-10------------------------10-7----7-10--------10-7-10----------------------------------|
d-|--10----------------------------------10------------------------------------------------------|
a-|----------------------------------------------------------------------------------------------|
E-|----------------------------------------------------------------------------------------------|
Quote by guitar-guy01
do what this guy says, he is wise
Last edited by dma529 at Aug 22, 2009,