#2

d---------13-----------12|
A-10-11-10----10-11-10---| 
repeated 4x

the 3rd section of the 4 words to choke upon solo by BFMV
Quote by pedromiles101
you're not gonna want to take a dump in a gross, off-colored, vintage toilet. you want something that is white and pearly; something that shines. something that you can put your cheeks against and say, "f*** yeah"
#4
e|-----------------------------------------------------|
B|-----------------------------------------------------|
G|-----------------------------------------------|
D|------4---------5------------7----------56--|
A|------2---------3------------5----55h6----5----|
E|0-0-----0-0---------0-0--------------------------------|

Came up with that the other day,

It's kinda hard to tab out because that's the first tab i've ever done but yeah,

It's just power chords with a hammeron etc i thought it sounded good, but i've only been playing like 5 months >_>
#5
The riff of "Jimmy the Exploder"


e----------------------------|
B----------------------------|
G--------5/7b--5-4-----------|
D---------------------5------|
A----3-5---------------------|
E--3-------------------------|
Control your destiny.
Last edited by habits at Aug 23, 2009,
#6
Teras- sylosis
so good
NEWCASTLE

UNITED!


My Gear:
Jackson DK2M
ESP LTD MH-401QMNT
Marshall AVT150H
Peavey Valve King Cab