#1
well truth is im looking for some decent metal songs to potentially cover which are quite popular among most metal fans ,i dont just mean the really obvious ones like
iron man,crazy train,master of puppets,and walk any suggestions would be great, just a note im not an stupidly advanced player so please dont say daft things like necrophagist-stabwound
99-------------55--------6666-------44-----444
99-------------55-----66-----66-----44-44--44
99-------------55-----66--66666---44--44--44
99-------------55-----66-------66---44--------44
99999999---55------66--------66--44--------44
#2
go with walk,the solo is alittle tricky but thats about it
Quote by RU Experienced?
I like staring at girls' boobs and seeing how long it takes them to say something and what their reaction is. It's win-win-win


Quote by darkstar2466
I once saw two snails fuck. It was pretty damn cool.
#3
rock you like a hurricane by scorpions. if you ever get a roommate and he has a girl over, play that song really loud. Its surprisingly entertaining.
#4
i can already play the solo to walk i think the most awkward bit is the 2 handed slidey thing that dimebag does but i think ive got it nailed

any more ideas?
99-------------55--------6666-------44-----444
99-------------55-----66-----66-----44-44--44
99-------------55-----66--66666---44--44--44
99-------------55-----66-------66---44--------44
99999999---55------66--------66--44--------44