#1
I pretty much have this whole song down and most of Dave's solo.

The only part that has been giving my bitch fits is the beginning of dave's solo.


Is this tab right?


http://www.ultimate-guitar.com/tabs/m/megadeth/holy_wars_the_punishment_due_solo_tab.htm#comments


or is this one?

http://www.ultimate-guitar.com/tabs/m/megadeth/holy_wars_the_punishment_due_ver5_guitar_pro.htm


This is the part (per the first tab I posted)

|-17p15p12-12-12--12-------------------------------------|
|--------------------17p=15p12--17p15p=12-17p=15p=12-----|
|-----------------------------------------------------15-|
|--------------------------------------------------------|
|--------------------------------------------------------|
|--------------------------------------------------------|

|-----------------------------------------------|
|-12--------------------------------------------|
|-----15p=14p12--15p=14p=12-15p=14p=12----12----|
|--------------------------------------14----14-|
|-----------------------------------------------|


|-----------------------------------------------|

|----------------------------------------------|
|----------------------------------------------|
|----------------------------------------------|
|-13-12-14p13p12----14p13p12-------------------|
|----------------14----------14p13---14p13p12--|
|----------------------------------------------|

|-------------------------------------|---------------------------------|
|-------------------------------------|---------------------------------|
|-------------------------------------|---------------------------------|
|-------------------------------------|---------------------------------|
|-14p13p12----14p13p12-10-12-10-12p10-|-----------------------------5---|
|----------14-------------------------|-0--------------------0----------|


The last bar is the part that is just terrible lol.


This one looks sensible I guess but the gp (I use tux guitar) tab has me doing that part and has me doing the little 12-10-12-10 part like going back and forth between 12 on the a string and 15 on the low e string. I've practiced that but it doesn't feel right.


I just want to know which one is correct.
-----
Currently using:
B.C. Rich NJ Deluxe Jr. V
B.C. Rich Revenge Warlock
Bugera 6262 212 120 Watt amp :

Coming soon:
B.C. Rich Pro X Mockingbird Hardtail
#2
Could you post the part from gp tab which you have problem with? I made that gp tab and everything sounds good to me.
Quote by zappp
emad I'm gonna ban you, seriously.
#3
Quote by emad
Could you post the part from gp tab which you have problem with? I made that gp tab and everything sounds good to me.

I'm terrible at writing out regular tabs. I just copied and pasted the one in the first post.


It's measure 194 (each measure has a red number above it I believe) on your tab.
-----
Currently using:
B.C. Rich NJ Deluxe Jr. V
B.C. Rich Revenge Warlock
Bugera 6262 212 120 Watt amp :

Coming soon:
B.C. Rich Pro X Mockingbird Hardtail
#5
Quote by emad
^What's wrong with it?

Don't get me wrong here

There's nothing wrong with it.

I'm just confused as to which one is right.


Like is that way just more efficient or does Dave actually play it that way live?
-----
Currently using:
B.C. Rich NJ Deluxe Jr. V
B.C. Rich Revenge Warlock
Bugera 6262 212 120 Watt amp :

Coming soon:
B.C. Rich Pro X Mockingbird Hardtail