#2
Heya,

I don't know if your still looking for this tab or not, but I worked out how to play it by ear a while back. It's a great song. I've tabbed it down roughly for you, I hope it's of some use.

Cheers,
Matt.



#----------------------------------PLEASE NOTE---------------------------------#
#This file is the author's own work and represents their interpretation of the #
#song. You may only use this file for private study, scholarship, or research. #
#------------------------------------------------------------------------------##


Tabbed by Matt Bird. This is how I play it, sounds good for the most part, not completely sure
about the harmonics at the end. Original song sounds like it starts in G minor, but I'm not sure
what tuning they are using. This is in A minor using standard tuning. Enjoy!


Gtr I (E A D G B E) - 'My Own Darkness - Dark Age'

 4/4
  Gtr I
  E E E E E E E E E E E E E E E E   E E E E E E E E  E E E E E E E E
|---------0-------8---------7-----|---------0--------8---------0------||
|-----------0-------0---------0---|-----------0--------0---------7---o||
|-----9-------9-------9---5-----5-|-----9-------9--------9---7-----7--||
|---7---7-------7-------0---------|---7---7-------7--------0----------||
|-0-------------------------------|-0--------------------------------o||
|---------------------------------|-----------------------------------||


  E E E E E E E E E E E E E E E E   E E E E E E E E E E E E E E E E
|---------0-------------2-0h2-----|---------0---------------0---------|
|-----3-----3---3-----3-------3---|-----------5---------------5-------|
|---0---0-----0-----2-----------2-|-----0-------0-------0-------0-----|
|-----------------0---------------|---7---7-------7---7---7-------7---|
|-3-------------------------------|-0---------------0-----------------|
|---------------------------------|-----------------------------------|


  E E E E E E E E  E E E E E E E E   E E E E E E E E E E E E  E   E   E   E
|---------0--------------2-0h2-----|------------------------------------------|
|-----3-----3---3------3-------3---|-----------3---------------------<7>------|
|---0---0-----0------2-----------2-|-----0---0---0-------0-------<7>-----<7>--|
|------------------0---------------|---4-----------4---4-----<5>--------------|
|-3--------------------------------|------------------------------------------|
|----------------------------------|-0-----0---------0-----0------------------|


Duration Legend
---------------
W - whole; H - half; Q - quarter; E - 8th; S - 16th; T - 32nd; X - 64th; a - acciaccatura
+ - note tied to previous; . - note dotted; .. - note double dotted
Uncapitalized letters represent notes that are staccato (1/2 duration)
Irregular groupings are notated above the duration line
Duration letters will always appear directly above the note/fret number it represents the
duration for.  Duration letters with no fret number below them represent rests.  Multi-
bar rests are notated in the form Wxn, where n is the number of bars to rest for.  Low
melody durations appear below the staff

Tablature Legend
----------------
 h   - hammer-on
 p   - pull-off
 b   - bend
 pb  - pre-bend
 r   - bend release (if no number after the r, then release immediately)
 /\  - slide into or out of (from/to "nowhere")
 s   - legato slide
 S   - shift slide
<n>  - natural harmonic
[n]  - artificial harmonic
n(n) - tapped harmonic
 ~   - vibrato
 tr  - trill
 T   - tap
 TP  - trem. picking
 PM  - palm muting
\n/  - tremolo bar dip; n = amount to dip
 \n  - tremolo bar down
 n/  - tremolo bar up
/n\  - tremolo bar inverted dip
 =   - hold bend; also acts as connecting device for hammers/pulls
 <>  - volume swell (louder/softer)
 x   - on rhythm slash represents muted slash
 o   - on rhythm slash represents single note slash

Misc Legend
-----------
 |  - bar
||  - double bar
||o - repeat start
o|| - repeat end
*|  - double bar (ending)
 :  - bar (freetime)
 $  - Segno
 &  - Coda
Tempo markers - <E/E./Q/Q./H/H.> = BPM(8/16=s8/s16), where s8 = swing 8ths, s16 = swing 16ths