#1
Hayja there folks I'm here, and new to guitar playing just got my first acoustic a few weeks ago. And i want to learn this:
http://www.youtube.com/watch?v=HHaihlZUxoI#t=1m45s
Slash's part ( the one with the ciggarete)
Sadly i couldnt find tabs for the way he plays here( he does no slides i think)

So could anyone be kind enough to tab Slash's playing until the singing comes in. ( Don't know if its possible not seeing his hands playing but i'll still post this )
#3
drop D tuning 1/2 step down

e|---------------------------------------------------------------------------|
B|---------------------------------------------------------------------------|
G|---------------------------------------------------------------------------|
D|------------3--2--0-------------0------------0--------------------------|
A|--------0--------------0---3^------0-----------0-----------------------|
D|-12\------------------------------------3^---------3^---0------------|

e|---------------------------------------------------------------------------|
B|---------------------------------------------------------------------------|
G|---------------------------------------------------------------------------|
D|--------3--2--0-------------0------------0-----3/5---------------------|
A|--------------------0---3^------0-----------0--3/5---------------------|
D|-------------------------------------3^----------3/5--------------------|

e|-----------------------------------------------------------------------|
B|-----------------------------------------------------------------------|
G|-----------------------------------------------------------------------|
D|--------3--2--0-------------0------------0--------------------------|
A|--------------------0---3^------0-----------0-----------------------|
D|-------------------------------------3^---------3^---0----3--------|


e|-----------------------------------------------------------------------------------|
B|-----------------------------------------------------------------------------------|
G|-------------------------------------0---------------------------------------------|
D|-----3--2--0------------0-------------3--2--0--------------0--------0----------|
A|----------------0---3^----------------------------0---3^-------------------0------|
D|-----------------------------3/5----------------------------------3^--------0------|
Last edited by crmrz at Aug 29, 2009,