#2
Standard tuning with capo on 4th fret

Chords:
Am7:x02010
D11:xx0010
Gmaj7:3x0002
E:022100
Dxx0232
G:320033

Verse:

e|---0---------------------------|
B|-------3---0-------------------|
G|----------------2--0-----------|
D|--------------------------------|
A|--------------------------------|
E|---------------------------------|

Am7 D11 Gmaj7 E (2)

Chorus:
Am7 D Gmaj7 E
Am7 D G

e|---0--------------------------|
B|-------3----------------------|
G|----------2p0----------------|
D|-----------------0------------|
A|-------------------------------|
E|-------------------------------|

verse...

2nd chorus:
Am7 D Gmaj7 E.......etc
#3
Thank you so much!

Could you help me figure out the note picked twice in between Am7 and D11 during the first verse? Also do you know a bass tab for this song?
Last edited by Xegewrath at Aug 30, 2009,
#4
It's the same D11 chord...it goes something like this...

e|---------0---0-0-0---------------------|
B|---------1---1-1-1---------------------|
G|--0-0---0---0-0-0---------------------|
D|--0-0------------------------------------|
A|------------------------------------------|
E|------------------------------------------|

I can help you with the bass too, but I'll do it later..remind me..