#1
Hey Guys, I have been looking around for ages for this song, Its Called Born To Bleed by A Thorn For Every Heart. This site has some of their songs, but none like this one. The song Im requesting is remade, The band has the original song, but its played by an electric guitar, but the one I want is the acoustic version. The song is on their myspace page, and it has really good quality.

Born To Bleed - A Thorn For Every Heart

You can find the song here: http://www.myspace.com/athornforeveryheart

If anyone thinks they can tab this song, please do.

And if you want to put it in a specific format such as a power tab or chords, it doesnt matter to me, as long as I can learn it, Im good.

Thanks in Advance
Dennis
Last edited by dennis1337 at Aug 31, 2009,
#2
Drop D tuning

intro & verse pattern:
e|-------------------------------------------------------------------------------------------------|
B|---------------------------------------------------------10----------10------------------------|
G|--------7-----------7-----------4----------4----------11-----------11---------6--------6----|
D|--------0-----------0-----------0----------0-----0-0------0-0-0--------------0---------0---|
A|--------x----------x------------x----------x-----0-0------0-0-0--------------x---------x----|
D|--9-9-9--9-9-9--9------5-5-5-5-5-5--5-----0-0------0-0-0---------4-4-4-4-4-4-4----|


Pre chorus: ("..if you getting high then why do you feel so damn low..")
e|---------------------------------------------------------------------------|
B|---------------------------------------------------------------------------|
G|--4444444---6666666----77777777-------------------------------|
D|--0000000---0000000----00000000------0000000000---------|
A|--xxxxxxx---xxxxxxx----xxxxxxxx------0000000000----------|
D|--5555555---7777777----99999999------0000000000---------|

e|---------------------------------------------------------------------------|
B|---------------------------------------------------------------------------|
G|--4444444---6666666----77777777---777777------------------|
D|--0000000---0000000----00000000---000000------------------|
A|--xxxxxxx---xxxxxxx----xxxxxxxx---xxxxxx------------------|
D|--5555555---7777777----99999999---999999------------------|


Chorus:
e|------------------------------------------------------------------------------|
B|------------------------------------------------------------------------------|
G|------------------444444444----777777777----6666666666-------|
D|---0000000----000000000----000000000----0000000000-------| (2x)
A|---0000000----xxxxxxxx-----xxxxxxxxxx----xxxxxxxxxxx--------|
D|---0000000----555555555----999999999----7777777777-------|

e|---------------------------------------------------------------------------|
B|---------------------------------------------------------------------------|
G|--22222222222222222------4--------------------------------------|
D|--00000000000000000------0--------------------------------------|
A|-xxxxxxxxxxxxxxxxxx-------x--------------------------------------|
D|--44444444444444444------5--------------------------------------|


e|------------5-----------------5--------------------10--------------------0-----------|
B|--------3------3----------3-----3---------------------10-----------2-------2-------|
G|----------------------------------------------------------------------------------------|
D|----------------------------------------------0----------------------------------------|
A|---2-----------------------------------------------------------------------------------|
D|---------------------5------------------0-----------------------4---------------------|

(3x)
e|--------5-------------5---------------5------------5------------10-----------10------------0-----------0--|
B|-----3----3-------3-----3---------3----3------3----3--------------10----------10------2---2-------2--2|
G|----------------------------------------------------------------------------------------------------------------|
D|---------------------------------------------------------------0-------------0---------------------------------|
A|2-------------2------------------------------------------------------------------------------------------------|
D|-------------------------------5-------------5------------0--------------0-------------4-----------4--------|


Outro:
e|--------------------------------------------------------------|
B|--------------------------------------------------------------|
G|--22222222222222222------444444444------------|
D|--00000000000000000------000000000------------|
A|--xxxxxxxxxxxxxxxxx-------xxxxxxxxxx------------|
D|--44444444444444444------555555555------------|


e|------------------------------------------------------|
B|------------------------------------------------------|
G|--22222222222222222------4-----------------|
D|--00000000000000000------0-----------------|
A|--xxxxxxxxxxxxxxxxx-------x-----------------|
D|--44444444444444444------5-----------------|
Last edited by crmrz at Sep 1, 2009,
#3
How would you play the part where hes picking out the strings??? Im having trouble with placing my fingers quickly, any tips?? Thanks if you can give me any