#1
hey has anyone got a good tab, preferably guitar pro of the acoustic version of Angel by Jimi Hendrix? i want to play it for me GCSEs. thanx
#2
couple months late(or is that april?) but submitted tonight pending approval

formatting is weird for posting tab here so i'll just leave the intro as a tease until it gets approved. Song is slow enough guitar pro isn't necessary to figure out

E|2--------------2-------2-------2-------------------------------|
B|3---3h4-3----3-------0---------------------------4------------|
G|4---4----4-- -4-------1---------------------------4------------|
D|4----------4--4-------2-----------------4-6-4----4------------|
A|x--------------x-------2-------------4/6------6---2------------|
E|2------------2-2--2---0---0------0----------------------------|

E|---------------------------------------------------------------|
B|---------------------------------------------------------------|
G|---------------------------------------------------------------|
D|------4-6/8-6-4------4-7-4--4---------------------------------|
A|--4/6-----------6-5---------5---5/7-7---------------------------|
E|---------------------------------------------------------------|
Last edited by links136 at Jan 14, 2010,