#1
kidding maby This is a song that i wrote
song: The Devil Cries Again
tunning: standered
Tabbed by: fighterboy10

intro

Lead:

|-
|-
|-rest
|-
|-
|-

Rythym:

|-----------------------|
|-----------------------|
|-----------------------|repeat only with chords goin down like 5 3 2
|-7777777777777-| 5 3 2 x3
|-7777777777777-| 3 1 0
|-5555555555555-|
** * *******
Lead: after first time of rythym intro

|-------------------------------------------------
|-------------------------------------------------
|-------------------------------------------------
|-9h10p9p7-9h10p9p7-9h10p9p7-9h10p9p7-12p10p9-5-5-
|-------------------------------------------------
|-------------------------------------------------

|----------------------------------------------------------------------|
|----------------------------------------------------------------------|
|----------------------------------------------------------------------|x2 second time band enters
|-12p10p9-5-5-10p7-3-3-10p7-3-3-3333333322222222-|
|--------------------------------------------3333333322222222-|
|--------------------------------------------1111111100000000-|

both:

|---|
|---|
|---|
|-7-|
|-7-|
|-5-|

verse 1:

bass line

rythym:

|------------------------------------------|
|------------------------------------------|
|------------------------------------------|
|-7-7-7-7-3-3-3-3-7-7-7-7-2-2-2-2-| x4 comes in after the bass line once
|-7-7-7-7-3-3-3-3-7-7-7-7-2-2-2-2-|
|-5-5-5-5-1-1-1-1-5-5-5-5-0-0-0-0-|

chorus:

rythym:

|-----------------------|
|-----------------------|
|-----------------------|
|-7---5---3---2-------|4x
|-7x8-5x8-3x8-2x8-|
|-5---3---1---0-------|

Lead same as intro start at same time as rythym

solo to be tabbed later.

song order intro
verse 1
chorus
verse 2
chorus
solo
chorus
chorus
outro (same as verse) end on 7/
7/
5/

lyrics:

verse 1:
Youve been dragged to death
but never again should you see the halt
of a life in distant lands or even in the future

Chorus:
The devil sezies your wrist dragging down your soul inside of that hard shell
but failure twists you slit his wrist the devil cries once again

verse 2:
your a hero in church youve caused everyone to search
inside themselves to find a better life to live
but sin approches!
#2


Please read the rules, homesnizzle.


'ported.
Today I feel electric grey
I hope tomorrow, neon black