#1
Hello, I am Italian! Sorry for my English!

I play the acoustic guitar and i have one request for you!

I need the tab of this particular version of "Canzone By Vasco Rossi".
This version actually is all instrumental and i need of Tab guitarist who plays with his hat!
I'm trying to trascivere this song but I'm stuck at this point and I can not go forward!
This is what I managed to transcribe:


|--------------------------------|--------------------------------|
|-----5--------------------------|--------------------------------|
|--5-----7--5--5/7--7/9---7---5--|-9-12-9--12/14-12-10---9--------|
|--------------------------------|---------------------10-10------|
|--------------------------------|--------------------------------|
|--------------------------------|--------------------------------|

| | | | | | | |
|--------------------------------|--------------------------------|
|-----------------------5--------|--------------------------------|
|--5-7-7/8-8/10-8-7-------7--5-4-|--------------------------------|
|---------------------5----------|--7-5-3-------------------------|
|--------------------------------|--------------------------------|
|--------------------------------|--------------------------------|

| | | | | | | |
|--------------------------------|--------------------------------|
|--3/5---------------------------|--------------------------------|
|-------7--5-5/7--7/9-----7---5--|-9-12-9--12/14-12-10----9-------|
|--------------------------------|---------------------10---10h12-|
|--------------------------------|--------------------------------|
|--------------------------------|--------------------------------|

| | | | | 0:39| | |
|--------------------------------|--------------------------------|
|-----------------------5--------|--------------------------------|
|-----5-7-7/8-8/10--9-----7--5-4-|--------------------------------|
|-10------------------5----------|-7-5-3--------------------------|
|--------------------------------|--------------------------------|
|--------------------------------|--------------------------------|

| | | | | | | |
|--------------------------------|--------------------------------|
|--------------------------------|--------------------------------|
|-7-7-7p5-9/11-9-7-6--4--6-------|--9-9-9p7-11/13-11-9--7-6h7-7---|
|--------------------------------|--------------------------------|
|--------------------------------|--------------------------------|
|--------------------------------|--------------------------------|

| | | | | | |0:55 |
|--------------------------------|--------------------------------|
|--------------------------------|---------6/8-7-5----------------|
|----9/11-9-7-6-4-4/6------------|-4/6-4-3---------7--------------|
|--7-----------------------------|--------------------------------|
|--------------------------------|--------------------------------|
|--------------------------------|--------------------------------|

| | | | | | | | 1:04
|--------------------------------|--------------------------------|
|--------------------------------|--------------------------------|
|-7-7-7p5-9/11-9-7-6--4--6-------|--9-9-9p7-11/13-11-9--7-6h7-7---|
|--------------------------------|--------------------------------|
|--------------------------------|--------------------------------|
|--------------------------------|--------------------------------|

| | | | | | | |
|--------------------------------|--------------------------------|
|--------------------------------|--------------------------------|
|-9-10-9h10p9p7-6----------------|--------------------------------|
|--------------------------------|--------------------------------|
|--------------------------------|--------------------------------|
|--------------------------------|--------------------------------|


I have not met graphically quarters.
link to this video: http://www.youtube.com/watch?v=G0P2cbKaeZU
I've also uploaded a version with higher quality audio at megaupload: http://www.megaupload.com/?d=E1ZPVF5U

The party who serves me is just the noise, ie the one in the video from the beginning until the third minute.

Please give me a hand to transcribe this execution of this wonderful song, please, please, please.


.
Last edited by IlReDelNiente at Sep 9, 2009,
#2
wrong forum
Quote by Jaymz_515
I pretend I'm a huge spider laying eggs, then when I flush the toilet I fall to floor screaming "MY CHILLLDRENN!! NOOOO!"


If you're flammable and have legs, you are never blocking a fire exit.
- Mitch Hedberg
#3
Hello, as stated I think you might have the wrong forum

https://www.ultimate-guitar.com/forum/forumdisplay.php?s=&daysprune=&f=10

Try that one, you might get better results

Quote by hazzmatazz
youmakemesmile...

Quote by sebastian_96
Today I stole a girls tampons for being such an annoying bitch.





MUFC


My love for you
Is like a truck
Berserker.
#5
Quote by j_hunter_hkr
I'm interested in seeing this "guitarist who plays with his hat".


No, no, no!!! Sorry! Sorry for my bad english.

What I really wanted to say was: "I need the part played by the guitarist with the hat"!!!

Sorry!

Please help me!


Riccardo.
#6
I hope someone has what you're looking for but reported for wrong forum
Quote by UraniYum
Fuck you I'm trying to be caring and shit


Quote by Cb4rabid
Okay guys, I have a confession to make. Not really a confession since it's something that's been bugging me for awhile but I've always been in denial about it.

**** you gilly, it's not what you think