#1
This is partly from Acoustic Guitar Thread.

The rules are:

-MADE UP A RIFF
-POST IT
-RATE THE ABOVE RIFF
-THE RIFFS CAN BE OF ANY STYLE
-PROFIT???

I'll begin

|-10-------9-----5-----7-----|
|----7-------7-----0-----5----|
|------7-------7-----0-----5--|
|-7------7--------4-----5-----|
|-------------------------------|
|-------------------------------|


NOW GET GOIN!
#2
its alright.


bum bum badda bum badaaaaaaaaaaaa
Uncle Vernon, Uncle Vernon,
independent as a hog on ice,
He's a big shot down there at the slaughterhouse,
Plays accordion for Mr. Weiss
#5
||---------------------|---------------------|---------------------|---------------------|---------------------||
||-1-------------------|---------------------|---------------------|---------------------|---------------------||
||---------------------|---------------------|---------------------|---------------------|---------------------||
||---------------------|---------------------|---------------------|---------------------|---------------------||
||---------------------|---------------------|---------------------|---------------------|-2-------------------||
||---------------------|---------------------|---------------------|---------------------|---------------------||
#8
E-------5-7-----7-|-8-----8-2-----2-|-0---------0-----|-----------------|
B-----5-----5-----|---5-------3-----|---1---1-----1---|-0-1-1-----------|
G---5---------5---|-----5-------2---|-----2---------2-|-0-2-2-----------|
D-7-------6-------|-5-------4-------|-3---------------|-----------------|
A-----------------|-----------------|-----------------|-2-0-0---0--/8-7-|
E-----------------|-----------------|-----------------|-----------------|

I'm pretty awesome I know.
#9
Quote by nrc141
no

EDIT: ^^^1/10....
well then here
-----------------------------------------
-----------------------------------------
-----------------------------------------
-----------------------------------------
------5---4--------1----------------0--
-0-0---0---0-0-0--3-1-0-0-1-3-----

Last edited by Ghrim at Sep 9, 2009,
#10
Quote by Maximum._.Power
E-------5-7-----7-|-8-----8-2-----2-|-0---------0-----|-----------------|
B-----5-----5-----|---5-------3-----|---1---1-----1---|-0-1-1-----------|
G---5---------5---|-----5-------2---|-----2---------2-|-0-2-2-----------|
D-7-------6-------|-5-------4-------|-3---------------|-----------------|
A-----------------|-----------------|-----------------|-2-0-0---0--/8-7-|
E-----------------|-----------------|-----------------|-----------------|

I'm pretty awesome I know.


Whoah...That sounds incredible, yet strangely familiar!
Fender Lite Ash --> TC Polytune --> Digitech Whammy V --> MXR Phase 90 --> EHX Small Clone --> Strymon Orbit --> TC Flashback X4 --> Rivera R55
#11
|-----------------|---------------|----------------|------------------||
||o----------------|---------------|----------------|-----------------o||
||--0---3---5----0-|---3---6-5-----|-0---3---5----3-|---0----(0)-------||
||--0---3---5----0-|---3---6-5-----|-0---3---5----3-|---0----(0)-------||
||o----------------|---------------|----------------|-----------------o||
||-----------------|---------------|----------------|------------------|
Guitar - Music Man John Petrucci X

Amp - Ronald cube 60, willing be getting a Mark V soon
#12
E-0-0-0-0-0-0-0-0-0-0-0-0-0-0-0-0-0-0-0-0-0-0-0-0-0-0-0-0-0-0-0-0-0-0-0-0-

Yes, I am Kerry King.
The DNA results show that Jeremy Kyle is a nob.


Quote by titsmcgee852
I want to look at your sexual naked body.
#13
Booooring!

Edit: I was too slow. This was a reply to sgany

|----------------------|
|-----------7-8-6----|
|-7-8-8-0-8-7-7-5-|
|-6-5-7-3-6-6-8-2-|
|-2-4-0-2-5-7-9-0-|
|----------------------|
Quote by rg_metal
I love to utilize furniture to achieve the desired penetration.

UGH!
taste
kaygade
#15
A small blues lick.

||-------------------------|----------------------|-------------------------|
||-------------------------|----------------------|-------------------------|
||-------------5v---------|--------------777---|-------------5v---------|
||-------5h7-------7----|--------5h7------5--|-------5h7-------7-----|
||--5s7------------------|---5s7--------------|--5s7-------------------|
||-------------------------|----------------------|-------------------------|
Marshall MG15DFX
Line 6 Spider III
Squier Strat Standard
Ibanez RG350EX
Dunlop Jimi Hendrix Signature Wah
#16
Quote by Maximum._.Power
E-------5-7-----7-|-8-----8-2-----2-|-0---------0-----|-----------------|
B-----5-----5-----|---5-------3-----|---1---1-----1---|-0-1-1-----------|
G---5---------5---|-----5-------2---|-----2---------2-|-0-2-2-----------|
D-7-------6-------|-5-------4-------|-3---------------|-----------------|
A-----------------|-----------------|-----------------|-2-0-0---0--/8-7-|
E-----------------|-----------------|-----------------|-----------------|

I'm pretty awesome I know.



GREAT RIFF


wait a sec
Quote by guitarlord28
I thought your avatar was slowpoke
#17
E-----------------3------------------2---------------------------1--------------------0------------
A-----------------3------------------2---------------------------1--------------------0------------
D-----------------3------------------2---------------------------1--------------------0------------
G-----------------3------------------2---------------------------1--------------------0------------
B-----------------3------------------2---------------------------1--------------------0------------
E-----------------3------------------2---------------------------1--------------------0------------

I call it 'The Final Countdown'. Neat, huh?

Also, to be a little more serious, shouldn't this be in the Riffs forum?


S t a i r s s r i a t S

#18
Quote by Maximum._.Power
E-------5-7-----7-|-8-----8-2-----2-|-0---------0-----|-----------------|
B-----5-----5-----|---5-------3-----|---1---1-----1---|-0-1-1-----------|
G---5---------5---|-----5-------2---|-----2---------2-|-0-2-2-----------|
D-7-------6-------|-5-------4-------|-3---------------|-----------------|
A-----------------|-----------------|-----------------|-2-0-0---0--/8-7-|
E-----------------|-----------------|-----------------|-----------------|

I'm pretty awesome I know.



Ive heard about this stairway that leads to heaven.....
If You See Me Posting In The Pit HIT ME.
Quote by KingJak236
My hamster used to bite me when I picked it up, then it got too old and fat to bite and died in a pool of it's own vomit.

Quote by Kensai
That's the rockstar way to go. I salute him.
#19
It's a tap line I wrote, the rhythm under it is a series of accidentals.


---------------------------------|
---------------------------------|
--9s--7--4---------------------|
------------7s--9p--2--0--2--|
---------------------------------|
---------------------------------|


--------------------------------|
--------------------------------|
--11s-7--4-------------------|
------------7--9p--2--0--2--|
--------------------------------|
--------------------------------|


----------------------------|
--8s-7--0-----------------|
-----------7--9--0--------|
--------------------7--9---|
----------------------------|
----------------------------|


-------------------------------|
--8s--7--0-------------------|
------------7s--9--0---------|
----------------------7s--9--|
-------------------------------|
-------------------------------|
Mesa Single Rectifier
Marshall 1960A vintage
Rg3exfm1 w/ EMG 85/81
Big Baby Taylor Acoustic
Ibanez TS808
#20
Quote by Petar
A small blues lick.

||-------------------------|----------------------|-------------------------|
||-------------------------|----------------------|-------------------------|
||-------------5v---------|--------------777---|-------------5v---------|
||-------5h7-------7----|--------5h7------5--|-------5h7-------7-----|
||--5s7------------------|---5s7--------------|--5s7-------------------|
||-------------------------|----------------------|-------------------------|


Nice dude.
GO RAVENS!

Quote by Ssargentslayer
Waaaait....

Did you just say you can't rape?


2012 NFL Thread Mock Draft Champion
#21

1|---------------------------------------------------------------------------|
2|---------------------------------------------------------------------------|
3|---------------------------------------------------------------------------|
4|------------5--------------------------------------------------------------|
5|--------7---------------7--------------------------------------------------|
6|----0-----------6---5------------------------------------------------------|

Lyrics:
Say your prayers, little one
Don't forget, my son
To include everyone


no one will beat this