#1
I submitted a tab and it was deleted, so I added a second guitar part and it was deleted again. There was no reason why. Could somebody look through it for me and tell me where I went wrong? (first tab)

Somebody Told Me Artist: The Killers Album: Hot Fuss Year: 2002 Tuning: Standard Music by Brandon Flowers, Dave Keuning, Ronnie Vannucci and Dave Keuning

Intro (overdrive)

Guitar 1:
e|99999999/1111111111111111/1313131313131313/1414141414141414|
B|xxxxxxxx/x-x-x-x-x-x-x-x-/x-x-x-x-x-x-x-x-/-x-x-x-x-x-x-x-x|
G|66666666/8-8-8-8-8-8-8-8-/1010101010101010/1111111111111111|
D|-----------------------------------------------------------|
A|-----------------------------------------------------------|
E|-----------------------------------------------------------|(x2)

Guitar 2:
e|----------------/---------------/-----------------------/-----------------------|
B|----------------/---------------/-----------------------/-----------------------|
G|----------------/---------------/-----------------------/-----------------------|
D|-6-6-6-6-6-6-6-6/8-8-8-8-8-8-8-8/10-10-10-10-10-10-10-10/11-11-11-11-11-11-11-11|
A|-8-8-8-8-8-8-8-8/8-8-8-8-8-8-8-8/8--8--8--8--8--8--8--8-/8--8--8--8--8--8--8--8-|
E|----------------/---------------/-----------------------/-----------------------|(x2)

Guitar 1:
e|13131313/14141414/16161616/14141414/13131313/14141414/1313131313131313|
B|x-x-x-x-/x-x-x-x-/x-x-x-x-/x-x-x-x-/x-x-x-x-/x-x-x-x-/x-x-x-x-x-x-x-x-|
G|10101010/11111111/13131313/11111111/10101010/11111111/1010101010101010|
D|----------------------------------------------------------------------|
A|----------------------------------------------------------------------|
E|----------------------------------------------------------------------|

Guitar 2:

e|----------------/---------------/-----------------------/-----------------------|
B|----------------/---------------/-----------------------/-----------------------|
G|----------------/---------------/-----------------------/-----------------------|
D|-6-6-6-6-6-6-6-6/8-8-8-8-8-8-8-8/10-10-10-10-10-10-10-10/11-11-11-11-11-11-11-11|
A|-8-8-8-8-8-8-8-8/8-8-8-8-8-8-8-8/8--8--8--8--8--8--8--8-/8--8--8--8--8--8--8--8-|
E|----------------/---------------/-----------------------/-----------------------|(x2)

e--------------------------/------------------------/------------------------/------------------------|
B|-------------------------/------------------------/------------------------/------------------------|
G|-------------------------/------------------------/------------------------/------------------------|
D|-10-10-10-10-11-11-11-11-/13-13-13-13-11-11-11-11-/10-10-10-10-11-11-11-11-/10-10-10-10-10-10-10-10-|
A|-8--8--8--8--8--8--8--8--/8--8--8--8--8--8--8--8--/8--8--8--8--8--8--8--8--/8--8--8--8--8--8--8--8--|
E|-------------------------/------------------------/------------------------/------------------------|

Guitar 1 or 2, not both:

Breaking my back just to know your name
(move right hand up and down the fretboard while still muting strings)
e|xxxxxxxxxxxxxxxxxxxxxxxxxxxxxxx|
B|xxxxxxxxxxxxxxxxxxxxxxxxxxxxxxx|
G|xxxxxxxxxxxxxxxxxxxxxxxxxxxxxxx|
D|xxxxxxxxxxxxxxxxxxxxxxxxxxxxxxx|
A|xxxxxxxxxxxxxxxxxxxxxxxxxxxxxxx|
E|xxxxxxxxxxxxxxxxxxxxxxxxxxxxxxx|

Seventeen tracks and I've had it with this game

Guitar 1:
e|13-13-13-13-14-14-14-14-16-16-16-16-14-14-14-14---|
B|-x--x--x--x--x--x--x--x--x--x--x--x--x--x--x--x---|
G|10-10-10-10-11-11-11-11-13-13-13-13-11-11-11-11---|
D|--------------------------------------------------|
A|--------------------------------------------------|
E|--------------------------------------------------|

Guitar 2:
e|-----------------|
B|-----------------|
G|-----------------|
D|-8-8-8-8-8-8-8-8-|
A|-8-8-8-8-8-8-8-8-|
E|-6-6-6-6-6-6-6-6-|


I'm breaking my back just to know your name..

Guitar 1 or 2:
e|xxxxxxxxxxxxxxxxxxxxxxxxxxxxxxx|
B|xxxxxxxxxxxxxxxxxxxxxxxxxxxxxxx|
G|xxxxxxxxxxxxxxxxxxxxxxxxxxxxxxx|
D|xxxxxxxxxxxxxxxxxxxxxxxxxxxxxxx|
A|xxxxxxxxxxxxxxxxxxxxxxxxxxxxxxx|
E|xxxxxxxxxxxxxxxxxxxxxxxxxxxxxxx|

Anything goes but don't blink you might miss

Guitar 1:
e|13-13-13-13-14-14-14-14-16-16-16-16-14-14-14-14---|
B|-x--x--x--x--x--x--x--x--x--x--x--x--x--x--x--x---|
G|10-10-10-10-11-11-11-11-13-13-13-13-11-11-11-11---|
D|--------------------------------------------------|
A|--------------------------------------------------|
E|--------------------------------------------------|

Guitar 2:
e|-----------------|
B|-----------------|
G|-----------------|
D|-8-8-8-8-8-8-8-8-|
A|-8-8-8-8-8-8-8-8-|
E|-6-6-6-6-6-6-6-6-|

I said heaven aint close in a place like this

Guitar 1 or 2:
e|xxxxxxxxxxxxxxxxxxxxxxxxxxxxxxx|
B|xxxxxxxxxxxxxxxxxxxxxxxxxxxxxxx|
G|xxxxxxxxxxxxxxxxxxxxxxxxxxxxxxx|
D|xxxxxxxxxxxxxxxxxxxxxxxxxxxxxxx|
A|xxxxxxxxxxxxxxxxxxxxxxxxxxxxxxx|
E|xxxxxxxxxxxxxxxxxxxxxxxxxxxxxxx|

Bring it back down bring it back down tonight

Guitar 1:
e|9999999999999999-9-9-9-9-8-8-8-8-9-9-9-9-9-9-9-9--|
B|777777779999999911111111111111111111111111111111--|
G|666666666666666610101010101010101010101010101010--|
D|--------------------------------------------------|
A|--------------------------------------------------|
E|--------------------------------------------------|

Guitar 2:
e|-----------------/-----------------/-----------------/-----------------|
B|-----------------/-----------------/-----------------/-----------------|
G|-----------------/-----------------/-----------------/-----------------|
D|-4-4-4-4-4-4-4-4-/-6-6-6-6-6-6-6-6-/-8-8-8-8-8-8-8-8-/-8-8-8-8-8-8-8-8-|
A|-4-4-4-4-4-4-4-4-/-6-6-6-6-6-6-6-6-/-8-8-8-8-8-8-8-8-/-8-8-8-8-8-8-8-8-|
E|-2-2-2-2-2-2-2-2-/-4-4-4-4-4-4-4-4-/-6-6-6-6-6-6-6-6-/-6-6-6-6-6-6-6-6-|

Never thought I'd let a rumour ruin my moonlight

Guitar 1:
e|9-9-9-9-9-9-9-9-9-9-9-9-9-9-9-9-9-9-9-9-9-9-9-9---|
B|7-7-7-7-7-7-7-7-7-7-7-7-7-7-7-7-9-9-9-9-9-9-9-9---|
G|6-6-6-6-6-6-6-6-6-6-6-6-6-6-6-6-6-6-6-6-6-6-6-6---|
D|--------------------------------------------------|
A|--------------------------------------------------|
E|--------------------------------------------------|

Guitar 2:
e|-----------------/-----------------/-----------------/-------|
B|-----------------/-----------------/-----------------/-------|
G|-----------------/-----------------/-----------------/-------|
D|-4-4-4-4-4-4-4-4-/-4-4-4-4-4-4-4-4-/-6-6-6-6-6-6-6-6-/-6---6-|
A|-4-4-4-4-4-4-4-4-/-4-4-4-4-4-4-4-4-/-6-6-6-6-6-6-6-6-/-6---6-|
E|-2-2-2-2-2-2-2-2-/-4-4-4-4-4-4-4-4-/-4-4-4-4-4-4-4-4-/-4---4-|

Well somebody told me... (both guitars)
e|-----------------------------------|
B|-----------------------------------|
G|33333333/--------------------------|
D|33333333/44444444/66666666/33333333|
A|11111111/44444444/66666666/33333333|
E|--------/22222222/44444444/11111111|

e|----------------------------|
B|----------------------------|
G|33333333/-------------------|
D|33333333/44444444/66666666/3|
A|11111111/44444444/66666666/3|
E|--------/22222222/44444444/1|

Ready let's roll..

GUitar 1 or 2:
e|xxxxxxxxxxxxxxxxxxxxxxxxxxxxxxx|
B|xxxxxxxxxxxxxxxxxxxxxxxxxxxxxxx|
G|xxxxxxxxxxxxxxxxxxxxxxxxxxxxxxx|
D|xxxxxxxxxxxxxxxxxxxxxxxxxxxxxxx|
A|xxxxxxxxxxxxxxxxxxxxxxxxxxxxxxx|
E|xxxxxxxxxxxxxxxxxxxxxxxxxxxxxxx|

Taking it's toll and I'm leaving without you

Guitar 1:
e|13-13-13-13-14-14-14-14-16-16-16-16-14-14-14-14---|
B|-x--x--x--x--x--x--x--x--x--x--x--x--x--x--x--x---|
G|10-10-10-10-11-11-11-11-13-13-13-13-11-11-11-11---|
D|--------------------------------------------------|
A|--------------------------------------------------|
E|--------------------------------------------------|

Guitar 2:
e|-----------------|
B|-----------------|
G|-----------------|
D|-8-8-8-8-8-8-8-8-|
A|-8-8-8-8-8-8-8-8-|
E|-6-6-6-6-6-6-6-6-|

'Cos heaven aint close in a place like this

Guitar 1 or 2:
e|xxxxxxxxxxxxxxxxxxxxxxxxxxxxxxx|
B|xxxxxxxxxxxxxxxxxxxxxxxxxxxxxxx|
G|xxxxxxxxxxxxxxxxxxxxxxxxxxxxxxx|
D|xxxxxxxxxxxxxxxxxxxxxxxxxxxxxxx|
A|xxxxxxxxxxxxxxxxxxxxxxxxxxxxxxx|
E|xxxxxxxxxxxxxxxxxxxxxxxxxxxxxxx|

Bring it back down bring it back down tonight

Guitar 1:
e|99999999/99999999/-9-9-9-9/8-8-8-8-/9-9-9-9-9-9-9-9---|
B|77777777/99999999/11111111/11111111/1111111111111111--|
G|66666666/66666666/10101010/10101010/1010101010101010--|
D|------------------------------------------------------|
A|------------------------------------------------------|
E|------------------------------------------------------|

Guitar 2:
e|-----------------/-----------------/-----------------/-----------------|
B|-----------------/-----------------/-----------------/-----------------|
G|-----------------/-----------------/-----------------/-----------------|
D|-4-4-4-4-4-4-4-4-/-6-6-6-6-6-6-6-6-/-8-8-8-8-8-8-8-8-/-8-8-8-8-8-8-8-8-|
A|-4-4-4-4-4-4-4-4-/-6-6-6-6-6-6-6-6-/-8-8-8-8-8-8-8-8-/-8-8-8-8-8-8-8-8-|
E|-2-2-2-2-2-2-2-2-/-4-4-4-4-4-4-4-4-/-6-6-6-6-6-6-6-6-/-6-6-6-6-6-6-6-6-|

Never thought I'd let a rumour ruin my moonlight

Guitar 1:
e|9-9-9-9-9-9-9-9-9-9-9-9-9-9-9-9-9-9-9-9-9-9-9-9---|
B|7-7-7-7-7-7-7-7-7-7-7-7-7-7-7-7-9-9-9-9-9-9-9-9---|
G|6-6-6-6-6-6-6-6-6-6-6-6-6-6-6-6-6-6-6-6-6-6-6-6---|
D|--------------------------------------------------|
A|--------------------------------------------------|
E|--------------------------------------------------|

Guitar 2:
e|-----------------/----------------/------|
B|-----------------/----------------/------|
G|-----------------/----------------/------|
D|-4-4-4-4-4-4-4-4-/6-6-6-6-6-6-6-6-/6---6-|
A|-4-4-4-4-4-4-4-4-/6-6-6-6-6-6-6-6-/6---6-|
E|-2-2-2-2-2-2-2-2-/4-4-4-4-4-4-4-4-/4---4-|
#2

Well somebody told me... (both guitars)
e|-----------------------------------|
B|-----------------------------------|
G|33333333/--------------------------|
D|33333333/44444444/66666666/33333333|
A|11111111/44444444/66666666/33333333|
E|--------/22222222/44444444/11111111|

e|-----------------------------------|
B|-----------------------------------|
G|33333333/--------------------------|
D|33333333/44444444/66666666/33333333|
A|11111111/44444444/66666666/33333333|
E|--------/22222222/44444444/11111111|

Pace yourself for me

Guitar 1:
e|11-9-11-9-11-9-------11-9--------11-9-11-9-11-9--------11-9-------|
B|--------------11-9-11----11-9-11---------------11-9-11-----11-9-11|
G|------------------------------------------------------------------|
D|------------------------------------------------------------------|
A|------------------------------------------------------------------|
E|------------------------------------------------------------------|

Guitar 2:
e|-----------------/----------------/---------------/---------------/
B|-----------------/----------------/---------------/---------------/
G|-----------------/----------------/---------------/---------------/
D|-4-4-4-4-4-4-4-4-/6-6-6-6-6-6-6-6-/8-8-8-8-8-8-8-8/8-8-8-8-8-8-8-8/
A|-4-4-4-4-4-4-4-4-/6-6-6-6-6-6-6-6-/8-8-8-8-8-8-8-8/8-8-8-8-8-8-8-8/
E|-4-4-4-4-4-4-4-4-/4-4-4-4-4-4-4-4-/6-6-6-6-6-6-6-6/8-8-8-8-8-8-8-8/ x3

But I just don't know now

Guitar 1:
e|11-11-11-9-------11-11-11-9-------11-11-11-9-------11-11-11-9-------11-11-11-9-------11-11-11-9--------99|
B|----------11-9-11----------11-9-11----------11-9-11----------11-9-11----------11-9-11----------11-9-11-77|
G|-------------------------------------------------------------------------------------------------------66|
D|---------------------------------------------------------------------------------------------------------|
A|---------------------------------------------------------------------------------------------------------|
E|---------------------------------------------------------------------------------------------------------|

Guitar 2:
e|-----------------/----------------/------/
B|-----------------/----------------/------/
G|-----------------/----------------/------/
D|-4-4-4-4-4-4-4-4-/6-6-6-6-6-6-6-6-/6---6-/
A|-4-4-4-4-4-4-4-4-/6-6-6-6-6-6-6-6-/6---6-/
E|-2-2-2-2-2-2-2-2-/4-4-4-4-4-4-4-4-/4---4-/


Well somebody told me (both guitars)
e|-----------------------------------|
B|-----------------------------------|
G|33333333/--------------------------|
D|33333333/44444444/66666666/33333333|
A|11111111/44444444/66666666/33333333|
E|--------/22222222/44444444/11111111|x5

e|--------------------------------------|
B|--------------------------------------|
G|33333333/--------------------------/33|
D|33333333/44444444/66666666/33333333/33|
A|11111111/44444444/66666666/33333333/11|
E|--------/22222222/44444444/11111111/--|


Thanks
#6
Quote by SergeantMikey
Right, thanks guys. Do you think if I should try again using the template?

I wouldnt bother, there are over 20 pre-existant tabs in one form or another on the site, try something else.
Originally Posted by Chromeproguitar
they make horrible noises in the middle of the night (is it sex?)

Quote by CliffIsAngry
I guess she's pretty hot if you're into that "having a good music video, but not better than Beyonce's" kind of thing...
#7
There are a million other tabs for that song. Why re-tab it?

It was the only task I would undertake...

I P R O G
...to reap the harvest that was mine


- [ P R O G - H E A D ? ] -