#1
So, I was wondering if anybody had some licks by Greg Howe? Kind of like Ritchie Kotzen's lick of week in Guitar World where he taught like 13 different licks each week.
It'd be awesome to get my hands on some staple Howe licks.

And yes, I do have the Hot Rock Licks Dvd by him.
While driving yesterday, I saw a banana peel on the road and instinctively swerved to avoid it...thanks Mario Kart.
#3
Quote by dandan321
So, I was wondering if anybody had some licks by Greg Howe? Kind of like Ritchie Kotzen's lick of week in Guitar World where he taught like 13 different licks each week.
It'd be awesome to get my hands on some staple Howe licks.

And yes, I do have the Hot Rock Licks Dvd by him.



http://www.premierguitar.com/Magazine/Issue/2009/Aug/Punchy_Legato.aspx


http://www.premierguitar.com/Magazine/Issue/2009/Jun/As_the_Notes_Burn.aspx
#4
Try here: http://www.youtube.com/user/howegreg?blend=1&ob=4

It's his youtube channel, I don't know how good it would be in terms of instructional content but if you can see and hear him doing it you might be abe to figure it out for yourself.
R.I.P. My Signature. Lost to us in the great Signature Massacre of 2014.

Quote by Master Foo
“A man who mistakes secrets for knowledge is like a man who, seeking light, hugs a candle so closely that he smothers it and burns his hand.”


Album.
Legion.
#5
nice, Greg is awesome hes def one of my favorite players, I know hes offering free trial lessons via webcam off of his website you can ask Greg himself!
#6
Sound proof intro chords

e|--7-7--x--7-7 -7--x--5-5-7
B|--7-7--x--9-10-7--x--7-7-7
G|--7-7--x--7-7 -7--x--5-5-7
D|--7-7-----7-7 -7-----5-5-7
A|-------------------------
E|-------------------------

you can listen for the timing,
walkie talkie

e|-------------------------------------|
B|-------------------------------------|
G|-------------------------------------|
D|-------------------------------------|
A|---------------------------------7---|
E|--0-2--6-0--0-2-6--0-5-6-7-0-5-6-----|

e|---------------------------------------------|
B|---------------------------------------------|
G|---------------------------------------------|
D|---------------------------------------------|
A|-----------------------------------4-4-2-4---|
E|--0-2--6-0--0-2-6--0-5-6-7-0-5-6-0-2-2-0-2---|

Something like that anyway, my ears aren't perfect by any means. You could play it using the A string instead of all on the E string but it sounds closer to whats on the record as is.

I only transcribed these two small parts because they peaked my interest. Get off my back.
^Note: Probably sarcastic
Gear
Schecter Blackjack C1-FR
Few Agile 8-strings
Ormsby Hypemachine 2014 otw!!

Carvin X-100B
axe-fx II

W.A musicians FTW
Quote by crisisinheaven
Deep*Kick. You have destroyed every concept of life I've ever had.