#1
this is the sultan of swing solo...
is this using hybrid pickin or


E13p10--10-13p10--10-13p10--10-13p10--10--
B-x-x-11bh13--(13)r11-------------10--------10--------10--------10----
G---------------------------------------------------------------------
D---------------------------------------------------------------------
A---------------------------------------------------------------------
E---------------------------------------------------------------------

e-13p10--10-13p10--10-13p10--10-13--x--15p12--12-15p12--12-15p12--12--
B------11--------11--------11------x--------13--------13--------13----
G---------------------------------------------------------------------
D---------------------------------------------------------------------
A---------------------------------------------------------------------
E---------------------------------------------------------------------

e-15p12---15p12--12-15p12--12-15p12--12-15---10-13p10--10-13p10--10--
B------13------13--------13--------13------10--------10--------10----
G--------------------------------------------------------------------
D--------------------------------------------------------------------
A--------------------------------------------------------------------
E--------------------------------------------------------------------

e-13p10--10-13p10--10-13p10--10-13p10--10-13p10--10-13--x-15p12--12-----
B------10--------10--------11--------11--------11------x-------13-------
G-----------------------------------------------------------------------
D-----------------------------------------------------------------------
A-----------------------------------------------------------------------
E-----------------------------------------------------------------------
#2
The fact that Mark Knopfler doesn't use a pick should be a massive clue here
Actually called Mark!

Quote by TNfootballfan62
People with a duck for their avatar always give good advice.

...it's a seagull

Quote by Dave_Mc
i wanna see a clip of a recto buying some groceries.


stuffmycatswatchontv.tumblr.com