#1
basically sweep arpeggios with tapping on the come back

any songs/tabs would definitely be a help
Quote by JacobTheMe
JacobTheEdit: Hell yeah Ruben.

Quote by Jackal58
I met Jesus once. Cocksucker still owes me 20 bucks.
#4
Quote by blue_strat
Learn the CAGED shapes and make them yourself.



Caged shapes???
im drawing a blank??

edit nvm
google helps

thanks all!
Quote by JacobTheMe
JacobTheEdit: Hell yeah Ruben.

Quote by Jackal58
I met Jesus once. Cocksucker still owes me 20 bucks.
Last edited by diofan88 at Sep 15, 2009,
#5
Take your simple major shapes then tap the root note on the high E ,like so:
T T T
|-------15h19h24p19p15--------------12h15h20p15p12---------------------14h17h22p17----------|
|----17----------------------17--------13----------------------13---------------15------------------15------|
|-16----------------------------16--12----------------------------12---------14------------------------14---|
|-----------------------------------------------------------------------------16----------------------------------|
|--------------------------------------------------------------------------17-------------------------------------|
|------------------------------------------------------------------------------------------------------------------|

As for minor shapes its probably easier to tap the 2nd note of the arpeggio ,so if your playing an A minor tap the C note (20th fret) or a G minor tap the A# note (18th fret)
#7
Ill never understand how someone who could even possibly play sweep arpeggios with tapping would ever need to ask people for them..

Youd think once you get to that point in guitar playing that youd be able to create your own.

Are you telling me theyre out of dragons?
They never had dragons..
Who didnt?
The world..
GET THIS GUY OUT OF HERE, FIND ME A DRAGON
#8
Quote by glenthemann
Ill never understand how someone who could even possibly play sweep arpeggios with tapping would ever need to ask people for them..

Youd think once you get to that point in guitar playing that youd be able to create your own.


This. Your theory should really be good enough to figure it out yourself.
#9
Quote by glenthemann
Ill never understand how someone who could even possibly play sweep arpeggios with tapping would ever need to ask people for them..

Youd think once you get to that point in guitar playing that youd be able to create your own.



It's not like it's even particularly advanced theory either.....
#11
Anything by protest the hero itl improve most of your techniques
Check out my YouTube Videos
http:
//www.youtube.com/user/callamanster
#12
Quote by LarsHamfield
Anything by protest the hero itl improve most of your techniques


Umm. I've learned probably 7 or 8 of there songs, and I can't think of a single one with sweep tapping.
#13
Hundreds of guitarists use this one,its a 3 octave e minor arpeggio

t
|-----------------------15-19-24-19-15-----------------------
|--------------------17----------------------17------------------
|-----------------16------------------------------16-------------
|--------------17--------------------------------------17--------
|-----------19----------------------------------------------19---
|------------------------------------------------------------------

3 octave C major arpeggio
t
|-----------------------12-15-20-15-12-----------------------
|--------------------13----------------------13------------------
|-----------------12------------------------------12-------------
|--------------14--------------------------------------14--------
|-----------15----------------------------------------------15---
|------------------------------------------------------------------

Check this one out,incorporate some great sounding sweeps with taps
http://www.ultimate-guitar.com/tabs/m/misc_unsigned_bands/ed2shred_-_aftermath_solo_tab.htm

Bands/artists who use sweep taps: necrophagist, dragonforce, children of bodom, edtoshred,
jeff loomis, nevermore, elias viljanen(sonata arctica) etc
#14
UG made a column or lesson with this I think.
Turtles R awesome. dont agree? YOU GO TO HELL, YOU GO TO HELL AND YOU DIE!


PSN: Purple-munky

Gear...
Ion - acoustic guitar.
Cort KX1Q - i smashed it
Fender Super Champ XD 15w
Stagg G-310 - i smashed it.