#1
what song is this? it starts with a bunch of guys singing this


q q e e q q q e e q
e----------------------------
b----------------------------
g----------------------------
a-------8-8-8--------------
E--5-5---------8-8-3-3-3-
#6
self esteem by the offspring?
Quote by 08don
yes, thank you guitarfreak. free bj for you anytime. just not from me. no homo.
#7

e----------------------------
b----------------------------
g----------------------------
a-------8-8-8--------------
E--5-5---------8-8-3-3-3-

You're missing a string, no?
Here's my Youtube channel.
I play guitar and video games on it.
You're more than welcome to check it out.

--------------------------------------------------------------------------------------------
Last edited by Born_to_shred : Next week or so
#9
yes, thank you guitarfreak. free bj for you anytime. just not from me. no homo.