#4
Since Mister Meh is helping you with the tab, this is just the intro..

standard 1/2 step down


e|----0-------0-------0--------0-----------0-----------|
B|----0-------0-------0--------0-----------0----------|
G|----6-------2-------2--------4-----------6----------|
D|----6-------2-------4--------4-----------6----------|
A|----4-------0-------4--------2-----------4----------|
E|-------------------------------------------------------|

e|---------------------------------------------------------------------------|
B|---------------------------------------------------------------------------|
G|---------------------------2-1---------1h2------------------------------|
D|---------------------------------------------------------------------------|
A|----------------------------------2-2-------------------------------------|
E|----------------------2-2-------------------------------------------------|