#1
hey UG! u know in sweet child of mine solo, before the run on the high e, theres that bending bit just before the run?

e-----------------------
B-----------7b-----7---10b then the run
G-9b-8-9------9---------
D----------------------
A------------------------
E--------------------

how do u guys do it???i bend the 9 with my middle finger, then the 10 with all 4, but i find this very uncomfortable.

how do u guys manage to pull it off?
#2
---1---1-2--1---2--1---3 <- fingers
e-----------------------
B-----------7b-----7---10b
G-9b-8-9------9---------
D----------------------
A------------------------
E--------------------

Thats how I'd play it
ProTone Pedals: Attack Overdrive
Fractal Audio: AxeFX 2
Engl: Fireball 60
Zilla: Fatboy 2x12
Carvin: DC700
Carvin: Vader 7
Schecter: KM-7 MKii
Schecter: Banshee 8 Passive
Jackson: DK2M
Last edited by pigeonmafia at Sep 17, 2009,
#4
Fingers:
3-2-3-1-3-1-4 (Yes, I'd bend with my pinky, but with help from the other fingers.)
C4C
Please check out some of my original music and leave me a comment @ SoundCloud
(or in my profile!)

Progressive|Thrash|Math|Metal
Last edited by BlisteringDDj at Sep 17, 2009,
#5
bend with ur 3rd finger or ur pinky... as long as u can play it right..

in time u will be comfortable to do it... when u bende with ur pinky... u usually have to get the other fingers to support a bit...