#1
http://www.ultimate-guitar.com/tabs/a/andy_mckee/heathers_song_guitar_pro.htm

It's Heather's song by Andy Mckee. I actually only have the text version, but there's a bunch of times in the tab where notes are played and Andy hits the guitar for that percussion noise at the same time.

|------------------------------------|
|--3----3-----------3----3---------|
|--0----2p0--2h4------2p-0------|
|-------0-----------------------0h--|
|--3----x----3--------3--x----3----|
|-------------------------------------|

The x marks where you're supposed to hit the guitar. But how exactly do you play those notes and hit the guitar at the same time? Is there some trick I'm missing? I listened to the song several times over and I don't really see how it's done. Can anyone help who's learned this some or anything?


----------------2----3---------|-----------------------------------|
---------3------3----3-----3--|--L-----3-----------3----3---------|
----0----0----0------------0--|--L-----2p-0---2h-4------2p-0------|
--2------2-----------------2---|--L-----0-----------------------0h-|
------3--x--3------3---x-3---|-----3--x----3--------3--x----3----|
--------------------------------|-----------------------------------|
Also, what do the L's mean?
Last edited by Missle_Z at Sep 17, 2009,
#2
you could just hold that finger over the string and mute it every other time or so it would seem
#3
What exactly do you mean? He doesn't hold his finger over any strings in the song I don't think...gah this is really frustrating