#1
Hi all,

Here's my take on How the Story Ends from Endgame.

This is just a start. Would like more input and contribution on the tab.


-------------------------------------------------------------------------------
			How the Story Ends - Megadeth
-------------------------------------------------------------------------------
Tabbed by: Chris Rizzo & ??? (Whoever want's to help get an ACCURATE tab in 
the end)

Email: chrisrizzo@hotmail.com

Tuning: Don't Know. I'm pretty sure at least the low E is tuned down a 1/2 step.

Special Notes:


Riff 1: x2


e|---------------------------------------------------------------------------|
B|---------------------------------------------------------------------------|
G|---------------------------------------------------------------------------|
D|-2-----4----------2-----5----------2-----4---------------------------------|
A|-2-----2----------2-----3----------2-----2--2---7-5-4----------------------|
E|-0---0-----0--0-0-0---0-----0--0-0-0---0----0---5-3-2---2-2-2-2------------|


e|---------------------------------------------------------------------------|
B|---------------------------------------------------------------------------|
G|---------------------------------------------------------------------------|
D|-2-----4----------------5----------2-----4---------------------------------|
A|-2-----2----------------3----------2-----2--2---7-5-4----------------------|
E|-0---0-----0--0-0-0-0-0-----0--0-0-0---0----0---5-3-2---2-2-2-2------------|


Riff 2: Verse

e|---------------------------------------------------------------------------|
B|---------------------------------------------------------------------------|
G|---------------------------------------------------------------------------|
D|---------------------------------------------------------------------------|
A|-5h7-5h7----2-----5h7-5h7----2-----5h7-5h7----2-----5h7-5h7----2-----------|
E|----------0-0---0----------0-0---0----------0-0---0----------0-0---0-------|


e|---------------------------------------------------------------------------|
B|---------------------------------------------------------------------------|
G|---------------------------------------------------------------------------|
D|---------------------------------------------------------------------------|
A|-2h3-2h3----5-----3h5-3h5----7-----5h7-5h7----2-----5h7-5h7--9-8-7---------|
E|----------3-3---3----------5-5---5----------0-0---0----------7-6-5---------|

e|---------------------------------------------------------------------------|
B|---------------------------------------------------------------------------|
G|---------------------------------------------------------------------------|
D|---------------------------------------------------------------------------|
A|-5h7-5h7----2-----5h7-5h7----2-----5h7-5h7----2-----5h7-5h7----2-----------|
E|----------0-0---0----------0-0---0----------0-0---0----------0-0---0-------|


e|---------------------------------------------------------------------------|
B|---------------------------------------------------------------------------|
G|---------------------------------------------------------------------------|
D|---------------------------------------------------------------------------|
A|-2h3-2h3----5-----3h5-3h5----7-----5h7-5h7----2-----5h7-5h7--5-4-3---------|
E|----------3-3---3----------5-5---5----------0-0---0----------7-6-5---------|

Chorus: 

e|---------------------------------------------------------------------------|
B|---------------------------------------------------------------------------|
G|---------------------------------------------------------------------------|
D|--------------4-5----------------------------------------------------------|
A|-2------------2-3----3-3-3-3-5-4------------4-3------------3---------------|
E|-0----0-0-0-0----------------3-2----2-2-2-2-2-1----1-1-1-1-1---------------|

e|---------------------------------------------------------------------------|
B|---------------------------------------------------------------------------|
G|---------------------------------------------------------------------------|
D|--------------4-5----------------------------------------------------------|
A|-2------------2-3----3-3-3-3-5-4------------4-3----------------------------|
E|-0----0-0-0-0----------------3-2----2-2-2-2-2-1----1-1-1-3-1---------------|


Interlude 1:

e|---------------------------------------------------------------------------|
B|---------------------------------------------------------------------------|
G|---------------------------------------------------------------------------|
D|---------------------------------------------------------------------------|
A|-5h7-5h7-----------5h7-5h7-----------5h7-5h7-----------5h7-5h7-9-8-7-------|
E|---------0-0-0-0-0---------0-0-0-0-0---------0-0-0-0-0---------7-6-5-------|


e|---------------------------------------------------------------------------|
B|---------------------------------------------------------------------------|
G|-----------------------------------------------------------7-8-9-----------|
D|-----------------------------------------------------------7-8-9-----------|
A|-5h7-----------5h7-5h7-----------5h7-5h7-----------5h7-5h7-5-6-7-----------|
E|-----0-0-0-0-0---------0-0-0-0-0---------0-0-0-0-0---------5-6-7-----------|

Return to verse.


Interlude 2: Eastern sounding ???


Solo riff:

e|---------------------------------------------------------------------------|
B|---------------------------------------------------------------------------|
G|---------------------------------------------------------------------------|
D|-----------------------------------------------------------1~--------------|
A|-7-6-7-----------------------------------------3---2~--1-2----3-2~---------|
E|-------0-0-0-7-0-8~--7-8--0-0-3-0-2~--1-2--0-0---0-------------------------|


e|---------------------------------------------------------------------------|
B|---------------------------------------------------------------------------|
G|---------------------------------------------------------------------------|
D|-------------------------------------------------------4-4-4-4-4-4-4-4-----|
A|-7-6-7-----------------------------------------3---2~--2-2-2-2-2-2-2-2-----|
E|-------0-0-0-7-0-8~--7-8--0-0-3-0-2~--1-2--0-0---0-------------------------|

e|---------------------------------------------------------------------------|
B|---------------------------------------------------------------------------|
G|---------------------------------------------------------------------------|
D|-9-8-9------------------------------------------------5----4---3-4-8--5-4--|
A|-7-6-7--------9---10--9-10--------5---4---3-4---------3----2---1-2-6--3-2--|
E|----------0-0-7-0-8---7-8-----0-0-3-0-2---1-2-----0-0----0-----------------|


e|---------------------------------------------------------------------------|
B|---------------------------------------------------------------------------|
G|---------------------------------------------------------------------------|
D|-9-8-9------------------------------------------------5--------------------|
A|-7-6-7--------9---10--9-10--------5---4---3-4---------3----9\--------------|
E|----------0-0-7-0-8---7-8-----0-0-3-0-2---1-2-----0-0----0-7\--------------|


Riff following solo:
                    
e|----------------|----------------------------------------------------------|
B|----------------|----------------------------------------------------------|
G|----------------|----------------------------------------------------------|
D|----------------|--------------------------4--------------------------5----|
A|-------------2--|--------------------------2--------------------------3----|
E|-1-1-0-0-0-0-0--|--1-1-3-3-1-1-0-0-0-0-0-0----1-1-3-3-1-1-0-0-0-0-0-0------|

e|---------------------------------------------------------------------------|
B|---------------------------------------------------------------------------|
G|---------------------------------------------------------------------------|
D|---------------------------------------------------------------------------|
A|---------------------5-4-3-------------------------------------------------|
E|-1-1-3-3-1-1-0-0-0-0-3-2-1-------------------------------------------------|

  x2

e|---------------------------------------------------------------------------|
B|---------------------------------------------------------------------------|
G|---------------------------------------------------------------------------|
D|-------------------------4---------------------------5---------------------|
A|-------------------------2---------------------------3---------------------|
E|-1-1-3-3-1-1-0-0-0-0-0-0-----1-1-3-3-1-1-0-0-0-0-0-0-----------------------|

e|---------------------------------------------------------------------------|
B|---------------------------------------------------------------------------|
G|---------------------------------------------------------------------------|
D|-------------------------4-------------------------------------------------|
A|-------------------------2-----------------------5-4-3---------------------|
E|-1-1-3-3-1-1-0-0-0-0-0-0-----1-1-3-3-1-1-0-0-0-0-3-2-1---------------------|


| /  slide up
| \  slide down
| h  hammer-on
| p  pull-off
| ~  vibrato
| +  harmonic
| x  Mute note
============================================================

Last edited by nostrovia at Sep 17, 2009,