#1
I have tabbed out most of the song (all except a few chord progressions towards the end). I am having trouble with part of the chorus and was wondering if anyone would be willing to lend a hand figuring it out.

-----------------------------------------------------------------------------
DON'T EVER LEAVE - Smile Empty Soul
-----------------------------------------------------------------------------
Tabbed by: Jeff
Email: jhamon02@hotmail.com

Tuning: Drop-D down 1/2 step

Intro
e|-----------------------------------------------------------------------------------------
B|-----8--------3--------6-------5---------5---------3--------1---------0--------------
G|---5---5---4---4---5---5---7---7----5---5----4----4---2---2----1---1----2~-----
D|-7-------5--------3--------0--------7--------5---------3--------2-----------2~-----
A|---------------------------------------------------------------------------------0~-----
D|-----------------------------------------------------------------------------------------


Bass plays first part of verse

When the guitar comes in, here are the chords (Listen to it for the pattern)
"La La La La"
e|----------------------------------------------------------------------------------
B|----------------------------------------------------------------------------------
G|-------------------------------5--5--5------------------------------------------
D|-7--5--3--0--7--5--3--2---5--5--5--0---------------------------------------
A|-7--5--3--0--7--5--3--2---3--3--3--0---------------------------------------
D|-7--5--3--0--7--5--3--2--------------0---------------------------------------


Chorus
e|--------------------------------------------------------------------------------------------------------
B|--------------------------------------------------------------------------------------------------------
G|--------------------------------9-9-------------------------------------------5-5--------------------
D|7-7-9-9--7-7-10-10-7-7---------7-7-5-5-3-3--5-5--3-3-7-7--3-3--------3-3-2-2----------
A|7-7--------7-7---------7-7---------7-7-5-5-3-3--------3-3-------3-3--------3-3-2-2----------
D|7-7-------7-7----------7-7---------7-7-5-5-3-3--------3-3-------3-3--------3-3-2-2----------


V This is where I need help V V Could be wrong V
e|------------------------------------------------------------------------------------------
B|------?-?-----?-?-----?-?---------------------------------------------------------------
G|------?-?-----?-?-----?-?---------------------------------------------------------------
D|-0-0-----0-0-----0-0------0-0-2-2-3-3-3-3-3-3-3-3-5-5-5-5-5-5-7-7----------
A|-0-0-----0-0-----0-0------0-0-2-2-3-3-3-3-3-3-3-3-5-5-5-5-5-5-7-7----------
D|-0-0-----0-0-----0-0------0-0-2-2-3-3-3-3-3-3-3-3-5-5-5-5-5-5-7-7----------

End of chorus
e|----------------------------------------------------------------------------------
B|-----5--------3--------1---------0----------------------------------------------
G|---5---5---4---4----2---2----1---1---2~-------------------------------------
D|-7-------5--------3---------2----------2~-------------------------------------
A|------------------------------------------0~-------------------------------------
D|----------------------------------------------------------------------------------