#1
hello

i have been trying to learn riffs by ear and i didn't want to look at tabs cuz i want to get the riff all by myself.so i want to tell me if what i figured out was right or not(by percent pls )


1-the thing that should not be-metallica

E-------------------------------------------------------------------
B-------------------------------------------------------------------
G-------------------------------------------------------------------
D-------------------------------------------------------------------
A----2--------4"""-------------------------------------------------
E----2--------4"""-------------------------------------------------

2-am i evil?-diamond head

during the intro

E-------------------------------------------------------------------
B-------------------------------------------------------------------
G-------------------------------------------------------------------
D----------------------------1----2"""'-----------------------------------
A-----1---2"""------0-------------------------------------------------------
E-0------------------------------------------------------------------

after the fast part

the open noteس pm of course
E-------------------------------------------------------------------
B-------------------------------------------------------------------
G ---------------------------2---------------3------2------------------
D ------------2-------------2---------------3------2----------------------
A ------------2-------------0---------------1------0----------------------
E-0-0-0-0--0---0-0-0-0------0-0-0-0------------------------------------------------


i know its not much but thats what i figured so far
"It's peace at last, or peace at least"
#2
for am i evil it's -----------------------
----------------------
------------------------
-------------------------
---2-1-------------------
-0--------1----0-----------
Originally Posted by TeenBite
Pfft, you all with your big shredding solos. I just play pinch harmonics, then play the same note again without a pinch harmonic. Everyone is like "teh fook?!".
#3
and the other part is -----------------------------------
------------------------------------
------------------------------------
-----------------------------------
--------5----------7-----------8--7----------
0000-3--000---5--000----6--5--------------------------
Originally Posted by TeenBite
Pfft, you all with your big shredding solos. I just play pinch harmonics, then play the same note again without a pinch harmonic. Everyone is like "teh fook?!".