#1
How do I do this?

I got one lick from some blues scale i don't remember.
it went something like this

---------------------------------1-4---
----------------------------1-4---------
--------------------1-3-4----------------
---------------1-2------------------------
-------1-2-3--------------------------------
-1-3-------------------------------------

And I got some form of

-------1-2-3----------------------
--1-3-------------------------------

Any idea's of how to do this more often?

I only got one lick just one time and others get like 5 licks out of 1 scale or something so I need to know how to do this.
Turtles R awesome. dont agree? YOU GO TO HELL, YOU GO TO HELL AND YOU DIE!


PSN: Purple-munky

Gear...
Ion - acoustic guitar.
Cort KX1Q - i smashed it
Fender Super Champ XD 15w
Stagg G-310 - i smashed it.
#2
^ get licks from music. music utilizes scales.

try learning some solos. Make the connection between what your playing/hearing & what scales you are utilizing.
shred is gaudy music
#3
Do what Munky says, but if you want pure scale based licks then check out Paul Gilbert - the master at making a decent riff out of a scale 'box'.