#1
I have a request that someone tab one of these two songs on guitar, as my youth group band would like to cover them for an annual show.

Much Like Falling ---- Flyleaf

Under My Skin-----Skillet


Thank you to the one who can do this.
#3
here's the chorus for under my skin


e|--------------------------------------------------------|
B|--------------------------------------------------------|
G|---6-66--8-888888--10-1010-10-10-1010----|
D|---4-44--6-666666--8---8--8--8---8--8--8------|
A|---4-44--6-666666--8---8--8--8---8--8--8------|
D|---4-44--6-666666--8---8--8--8---8--8--8------|

e|------------------------------------------------------|
B|------------------------------------------------------|
G|---6-66--3-3-3---10-1010-10-10-1010-------|
D|---4-44--1-1-1----8---8--8--8---8--8--8-------|
A|---4-44--1-1-1----8---8--8--8---8--8--8-------|
D|---4-44--1-1-1----8---8--8--8---8--8--8-------|