#1
I really love this song but I cant find the tab anywhere, can someone gimme a hand? Thanks.
#2
i unno the tuning but i've been screwing around with the main riff.. i think it's right.. just like.. well during the part where edsel's like "I don't give a, i don't give a"

E----------------------------------
B----------------------------------
G----------1~-----------1*------
D--------2------------2------------
A------2------------2--------------
D-1-3---------1-3------------------

i'm still trying to figure out the tuning.. i think its either drop C or drop D...
Last edited by MetalGuitarest at Sep 25, 2009,
#3
Quote by MetalGuitarest
i unno the tuning but i've been screwing around with the main riff.. i think it's right.. just like.. well during the part where edsel's like "I don't give a, i don't give a"

E----------------------------------
B----------------------------------
G----------1~-----------1*------
D--------2------------2------------
A------2------------2--------------
D-1-3---------1-3------------------

i'm still trying to figure out the tuning.. i think its either drop C or drop D...



Thanks man, as for the tuning its i think it may be in C#/Db because dope uses that tuning a lot. Does anyone know the chorus or solo?
#4
I'd also love to learn this song, but that little licky thing is a pain in the arse.
#5
Hey I was just playing it, and I dont think the Part where Edsel is singing "I dont give a, I dont give a (what?!)" right....but It's better than anything I can come up with so i wont complain.

CHORDS: IM playing this in C#:

THIS IS PLAYED DURING THE VERSES, BUT PALM MUTED!!!

-------------------------------------------
-------------------------------------------
3-3-3-3-3-9-9-9-9-9----------------------
3-3-3-3-3-9-9-9-9-9-9-9-9-9-9-4-4-4-4-4
1-1-1-1-1-7-7-7-7-7-9-9-9-9-9-4-4-4-4-4
------------------------9-9-9-9-9-4-4-4-4-4

THEN THE SAME BUT THE END CHANGES SLIGHTLY!

---------------------------------------------------------------
---------------------------------------------------------------
3-3-3-3-3-9-9-9-9-9----------------------------------------
3-3-3-3-3-9-9-9-9-9-9-9-9-9-9-11-11-11-9-9-9---------
1-1-1-1-1-7-7-7-7-7-9-9-9-9-9-11-11-11-9-9-9---------
------------------------9-9-9-9-9-11-11-11-9-9-9---------

THEN THERE'S THAT ANNOYING PART:

D#-----------------------------------
A#-----------------------------------
F#----------1~-----------1*---------
C#--------2------------2-------------
G#------2------------2---------------
C#-1-3---------1-3------------------

Then the Chorus is the same as the verse, BUT not palm muted. enjoy!