#1
How would I go about tapping this?
D#|--------|----------------------17-------------------------|----------------------17-------------15-17-15----|
A#|--------|----17-------17-------------------17-------------|----17-------17-------------------17----------17-|
F#|--------|-------16-19----16-19----19-16-19----------18-21-|-------16-19----16-19----19-16-19----------------|
C#|--------|-14----------------------------------17-20-------|-14----------------------------------------------|
G#|--------|-------------------------------------------------|-------------------------------------------------|
D#|--------|-------------------------------------------------|-------------------------------------------------|


D#|-----------|
A#|-17--------|
F#|-----------|
C#|-----------|
G#|-----------|
D#|-----------|

I write songs.
YOU SHOULD LISTEN TO THEM
Currently Requiring Crits:
none
#2
Shameless bump, I need help

I write songs.
YOU SHOULD LISTEN TO THEM
Currently Requiring Crits:
none
#3
I wouldn't tap any of that, I'd just alt pick it.
Quote by Geldin
Junior's usually at least a little terse, but he knows his stuff. I've always read his posts in a grouchy grandfather voice, a grouchy grandfather with a huge stiffy for alternate picking.
Besides that, he's right this time. As usual.
#4
You probably want to convert it into tapping?

If so figureout the notes and place them elsewhere so you can make wide stretch arpeggio's which you can tap.

Wait a minute, that's Sequoia Throne.


-   t        t        t (t)       t     t     t        t     t (t)   
D#|-------------------17-------------------------------------17-------|
A#|-17-12-15-17-12-15----15-12-15-17-------14-17-12-15-17-12----15-12-|
F#|----------------------------------12-15----------------------------|
C#|-------------------------------------------------------------------|
G#|-------------------------------------------------------------------|
D#|-------------------------------------------------------------------|

-      t     t        
D#|-------15-17-15-12-(12)\-|
A#|-15-17-------------------|
F#|-------------------------|
C#|-------------------------|
G#|-------------------------|
D#|-------------------------|

0:03 - 0:10
-   t        t        t (t)       t     t     t        t     t (t)
D#|-------------------17-------------------------------------17----------|
A#|-17-12-15-17-12-15----15-12-15-17-------14-17-12-15-17-12----15-12-15-|
F#|----------------------------------12-15-------------------------------|
C#|----------------------------------------------------------------------|
G#|----------------------------------------------------------------------|
D#|----------------------------------------------------------------------|

-   t     t        t        t        t (t)       t     t     t        t
D#|----15-17-15-12-------------------17----------------------------------|
A#|-17-------------17-12-15-17-12-15----15-12-15-17-------14-17-12-15-17-|
F#|-------------------------------------------------12-15----------------|
C#|----------------------------------------------------------------------|
G#|----------------------------------------------------------------------|
D#|----------------------------------------------------------------------|

-      t (t)       t  
D#|----17-------------15-17-15-12-(12)\-|
A#|-12----15-12-15-17-------------------|
F#|-------------------------------------|
C#|-------------------------------------|
G#|-------------------------------------|
D#|-------------------------------------|


Play it like that.
Last edited by KoenDercksen at Sep 28, 2009,
#5
Just to let those "lol alt pick it" guys know, those are 16th notes at 154 bpm.

I write songs.
YOU SHOULD LISTEN TO THEM
Currently Requiring Crits:
none
#7
Quote by WyvernOmega
Just to let those "lol alt pick it" guys know, those are 16th notes at 154 bpm.

What's going to happen when you learn scale runs at that speed? Are you going to tap those too?
Quote by dudetheman
So what? I wasted like 5 minutes watching DaddyTwoFoot's avatar.


Metalheads are the worst thing that ever happened to metal.
#10
No offense meant, but are you absolutely positive? The only reason I say this is because looking at the original tab the fingering is organized very logically for alt picking it.