#1
ok this is gona be a thread about excersices that u do regularly i got a faily good one


e--10-9----------------7-8----------------------
b---------7-8-10-9-------------------------------
g--------------------------------------------------
d-------------------------------------------------
a-------------------------------------------------
E-------------------------------------------------
do that up all the strings


got this from hands of steel rockhouse dvd great dvd get it what do you guys got
Bryce
#4
Quote by xoguitarist95ox
whats stevie vai's ten hour workout????
sorry if this is obvious

A practice routine containing a whole lot of exercises etc which are intended to be completed over a ten hour period.

Nice exercise, TS- I'll definitely try it. I'm on my iPod right now though, so when I get access to a computer I'll post some.
My Last.fm
USA Fender Stratocaster | Roland Cube 60 | VOX ToneLab LE
#8
These are some of my exercises. I found them on the web dont remember where but they have helped me. After you have the five six down for 30 seconds with no screw up then you change the tabs to 5--7 ant then 5--8 ... Do this while "alternate picking".

e--5---------6--5--------6--5---------6--5---------6--5---------6--- LOOP
b-----6--5---------------------------------------------------------------
g-------------------6--5-------------------------------------------------
d---------------------------------6--5-----------------------------------
a-----------------------------------------------6--5---------------------
E-------------------------------------------------------------6--5-------

e--5-----------------------------------------------------------------6--- LOOP
b-----6--5---------------------------------------------------6--5-------
g------------6--5-------------------------------------6--5--------------
d-------------------6--5-----------------------6--5---------------------
a--------------------------6--5---------6--5----------------------------
E---------------------------------6--5-----------------------------------

e--5----------6--5---------6--5---------6--5---------6--5---------6-- LOOP
b-----------------------------------6--5----------------------------------
g------6--5---------------------------------------------------------------
d-------------------------------------------------6--5--------------------
a---------------------6--5------------------------------------------------
E---------------------------------------------------------------6--5------
"shwing"
Last edited by ivanm1 at Sep 28, 2009,