#1
Me and my brother shall write a text to this song for our mother's 50 years birthday, would anyone be able to take out the tab to the intro and maybe find the chords? Would have been wonderful. Please. Thanks

http://www.youtube.com/watch?v=8hx4WM9Dw2I
Last edited by BigBoyy at Sep 29, 2009,
#3
e---------------------------------------------------------------------------------------------
B--------------------------------------8--8-8-8-8------------------------------------------
G---------------------5-5--5-5-7/9---------------7-5-----------5----------------5-------
D-------5-5--5-5-7-------------------------------------5-5-5h7----5--5-5-5h7----5---
A-3/7----------------------------------------------------------------------------------------
E---------------------------------------------------------------------------------------------

e----------------------------------------
B----------------------------------------
G----------------------------------------
D-5-5-5h7-5-5------------------------
A------------------7-5-3---------------
E----------------------------------------

där har du introt