#1
Well i'm not happy with this cheap little riff I just made. I was doodling around with strumming patterns and came across this

-------------------------------------------
--------------------------------------------
--------0-------3--3--3------------------
---5---5-------3--3--3-------------------
---5------------3--3--3-------------------
---3----------------------------------------

-----0---------------------------------------
-----0---------------------------------------
---------9---9-9--------9b--7-7---6-6---6-6--6--6~~~
-9------9---9-9--------9b--7-7---6-6---6-6--6--6~~~
-9-------------------------------------------
-7-------------------------------------------

Since this is a music theory forum. I'm thinking you guys can make this little riff better with all your notes and stuff. You can hear some type of mood it brings on.

Feel free to use it if you like it.
Turtles R awesome. dont agree? YOU GO TO HELL, YOU GO TO HELL AND YOU DIE!


PSN: Purple-munky

Gear...
Ion - acoustic guitar.
Cort KX1Q - i smashed it
Fender Super Champ XD 15w
Stagg G-310 - i smashed it.
#2
I really don't know the rhythm and stuff but I'll give it a shot.

Edit: Use Courier New or the tags for tab.

[quote="vinnie-watt5"][font="Courier New"]-------------------------------------------
--------------------------------------------
--------0-------3--3--3------------------
---5---5-------3--3--3-------------------
---5------------3--3--3-------------------
---3----------------------------------------

-----0---------------------------------------
-----0---------------------------------------
---------9---9-9--------9b--7-7---6-6---6-6--6--6~~~
-9------9---9-9--------9b--7-7---6-6---6-6--6--6~~~
-9-------------------------------------------
-7-------------------------------------------[/FONT][/QUOTE]Fixed.

Edit: I guess not...
Only play what you hear. If you don’t hear anything, don’t play anything.
-Chick Corea
Last edited by food1010 at Oct 4, 2009,
#3
Yeah I dont know how to use code
Turtles R awesome. dont agree? YOU GO TO HELL, YOU GO TO HELL AND YOU DIE!


PSN: Purple-munky

Gear...
Ion - acoustic guitar.
Cort KX1Q - i smashed it
Fender Super Champ XD 15w
Stagg G-310 - i smashed it.
#4
Quote by vinnie-watt5
Yeah I dont know how to use code
If you click "Go Advanced," you just highlight the part you want to put into tab format, and click the # at the top.

If you want to do it manually, the tags look a bit like this: and the second one has a / right between the first bracket and the C. Put the first one at the beginning and the second one at the end.
Only play what you hear. If you don’t hear anything, don’t play anything.
-Chick Corea
#5
sounds pretty kool man, try it like this...


--------------0--------------0-----------------------------------
------------------------------0-----------------------------------
------------0---3-3-3--------9---9-9-9-7-7-6-6---6-6---6-6~~
-------5-5-5---3-3-3-9-9---9---9-9-9-7-7-6-6---6-6---6-6~~
-------5-5------3-3-3-9-9--------------------------------------
-------3-3--------------7-7--------------------------------------

8 8 8 8 8 8 8 8 8 8 4 8 8 8 8 8 8 4 8 4 8 4


8=8th note
4=quarter note
#6
I'm liking psitacosis's improvment of the riff.

So nobody else wants to add anymore?
Turtles R awesome. dont agree? YOU GO TO HELL, YOU GO TO HELL AND YOU DIE!


PSN: Purple-munky

Gear...
Ion - acoustic guitar.
Cort KX1Q - i smashed it
Fender Super Champ XD 15w
Stagg G-310 - i smashed it.
#7
I fiddled around a bit and came up with something.. let me get it in GP and then I'll post it.
Attachments:
thing.gp5
i don't know why i feel so dry
Last edited by Eastwinn at Oct 4, 2009,
#8
Quote by Eastwinn
I fiddled around a bit and came up with something.. let me get it in GP and then I'll post it.

that sounded really good actually
must've been hard to tab out
#9
Quote by eiirish
that sounded really good actually
must've been hard to tab out


Kind of. When I play it, the rhythm ends up being more complicated because I can't just play a few chords. It's really fun to play, though.

Forget to set the key sig. It should be G Major.
i don't know why i feel so dry
#10
Quote by Eastwinn
I fiddled around a bit and came up with something.. let me get it in GP and then I'll post it.
That's lovely, dude!