#1
play it some what slow its one tab i broke into two parst so its easier to read. standard tuning.

e|----------------------------------------------------------------------------------------------0-----|
B|-------------1-0------------0-1-------------1--0------------0-1-----------1-----------------1--|
G|---------0---------------0------------------------------------------------0-----2-----------------|
D|------------------------------------------2----------------0---------------------------------------|
A|----3-----------------2--------------0-------------------------------------------------------------|
E|---------------------------------------------------------3-------------1---------------1-----------|


e|-----------------------------0---------------------------|
B|------------------0--1--3------3-----------------------|
G|-------------------------------------0-------------------|
D|--------------0------------------------------------------|
A|----------------------------------------------------------|
E|---1----3-------------------------------------------------|

incase your wondering the song is Never Gonna Be The Same by Courtney Love.
#2
ok?

EDIT: played it a few times, still doesn't make up for killing Kurt
Epiphone G-400
Yamaha Pacifica (Mod on hold due to procrastination)
Rocktron Banshee
Marshall 10CD

Quote by geetarguy13

I've never smoked before but it looks like fun.
Last edited by JBizzle Da Truf at Oct 4, 2009,
#3
Quote by JBizzle Da Truf
ok?

EDIT: played it a few times, still doesn't make up for killing Kurt


yep
LTD JD 600
Fender Celtic Esquire
Ibanez RGA7
Schecter S-1 Elite
Line 6 FM4
KORG Pitchblack
Digitech Whammy
Dunlop Wah
Ibanez TS-9
ISP Decimator
Peavey 6505 Halfstack
Marshall 1960b Cab
Line 6 POD X3 Live
#4
It isn't really that easy if you play it at a decent speed.
Quote by Scutchington
May 1st 2010 I had a sandwich.

May 1st 2011 Osama is killed.

May 2nd 2011 I decided the sandwich I had last year was pretty good.
#5
Quote by benomino324
It isn't really that easy if you play it at a decent speed.


the song is orginally played slowly to give it a sad feel.
#7
that was the most boring thing I've ever experience, this thread would barely be worthy of the pit.

"The mind is its own place, and in itself

Can make a Heav'n of Hell, a Hell of Heav'n"

- John Milton, Paradise Lost
#8
Quote by metallicafan616
that was the most boring thing I've ever experience, this thread would barely be worthy of the pit.


I apologize I thought I'd share it with everyone because I thought it was a pretty tune. But from the looks of the majority of the comments here this is not for everyone.
#9
It's not bad. i can feel the atmospear but it's not that strong
Turtles R awesome. dont agree? YOU GO TO HELL, YOU GO TO HELL AND YOU DIE!


PSN: Purple-munky

Gear...
Ion - acoustic guitar.
Cort KX1Q - i smashed it
Fender Super Champ XD 15w
Stagg G-310 - i smashed it.
#10
Courtney Love???? Really? C'mon.

It's a a good tune for a begginer to mess around with....if he/she can get over the fact that C.L wrote it.
Gear
Jackson RR24M - EMG ALX w/ ABQ installed
Ibanez Xiphos - stock
LTD Alexi 600 - stock
Ibanex RG - Tone Zone(bridge), PAF Pro(neck)
Blackstar HT-20H
Fulltone OCD
MXR 10 Band EQ
#11
Quote by vinnie-watt5
It's not bad. i can feel the atmospear but it's not that strong

i know that guy.
Quote by allislost
I would say that aetherspear speaks nothing but the truth.
UG Blues Group
UG Reggae & Dub Group
Need Professional Mixing for cheap? Need Vinyl to Digital Transfers? PM Me.
#13
facepalm
Originally Posted by Twist of fate
I thought the "clean" button was to clean out the inside of the amp automatically, so I never pressed it.


Originally Posted by DjBrandenburg
pedals are stupid
#14
Quote by candyheart
play it some what slow its one tab i broke into two parst so its easier to read. standard tuning.

e|----------------------------------------------------------------------------------------------0-----|
B|-------------1-0------------0-1-------------1--0------------0-1-----------1-----------------1--|
G|---------0---------------0------------------------------------------------0-----2-----------------|
D|------------------------------------------2----------------0---------------------------------------|
A|----3-----------------2--------------0-------------------------------------------------------------|
E|---------------------------------------------------------3-------------1---------------1-----------|


e|-----------------------------0---------------------------|
B|------------------0--1--3------3-----------------------|
G|-------------------------------------0-------------------|
D|--------------0------------------------------------------|
A|----------------------------------------------------------|
E|---1----3-------------------------------------------------|



I had this major erection until i saw the descending 3 - 2 - 0 on the A-string, so i had to apologize to my girlfriend. Without fooling around, it's só ridicously standard that it has been done 1000 times more often AND better than this.
#17
loook for the bob marley- of no woman no cry

its in Gpro format

anyways its like in arpeggio format much like this but sounds 100 times more awesome
#18
Quote by deHufter
I had this major erection until i saw the descending 3 - 2 - 0 on the A-string, so i had to apologize to my girlfriend. Without fooling around, it's só ridicously standard that it has been done 1000 times more often AND better than this.



*coughBabeImonnaLeaveYacough*


Seroiusly, if you want a song that is sad and beautiful, just play "Tears in Heaven" makes me sad every time I hear it, but that may because of the connection I have with it.