#1
well i was chillin with a friend and we were playing guitar, he showed me how to play this but i dont know what song it is and its making me mad that i dont.
so if anyone knows it would be cool

i know its acoustic or it sounds really good on acoustic.


this riff is repeated a few times

----------------------------------------
-------0--------0--------0-------------
--------0--------0--------0------------
----5--------9--------7----------------
-33-3----77-7----55-5--------------
----------------------------------------
theres a little solo in between these

then this one a few

-0--000--0--000--000000--0--000--0--000-000000-----------
-0--000--0--000--000000--0--000--0--000-000000-----------
-0--000--0--000--000000--0--000--0--000-777777-----------
-9--999--7--777--555555--9--999--7--777-555555-----------
-7--000--5--000--333333--7--000--5--000-000000-----------
-0---------0---------000000---0-000--0-------000000----------------
#6
yeah man its emily
Quote by LuckyBoys91
+ ****ing 1


i've got a point

Quote by Pr0gNut
No,they're to high end for me.I usually just walk into a random building and scream "FIX MY BANJO NOW!!!!" until they hit me with sticks and call the police.


TSHM.
#7
oh my god thank you!! hah, iwas looking forever.. its so hard when all youknow is the guitar hah.