#1
ive searched the whole web for this tab!! im talkin about the inrto for " black sabbath" live in paris, where he plays that fast clean creepy intro. does anyone have a tab for this? i heard tony iommi made that intro just for that show. its so bad ass.

im new to the site, i hope i posted this where it needed to be.


does anyone, or can any one make a tab of that for me?


Thanks ahead.
#2
Simply want to say your article is stunning. The clearness in your post is simply impressive and i can take for granted you are an expert on this subject. Well with your permission allow me to grab your rss feed to keep up to date with forthcoming post. Thanks a million and please keep up the delightful work.


***Link removed by emad***
#3
e|---------------------------------------------------------------------------------------|
B|---------------------------------------------------------------------------------------|
G|--------2--------2---------2------------------2---------2--------2--------2--------|
D|-----3--------3---------3-------3----4----4---------4--------4---------4----------|
A|--4---------4--------4--------4----------5--------5--------5--------5--------------|
E|----------------------------------------------------------------------------------------|

e|-----------------------------------------------------------------------------------------|
B|----------------------------------------------------------------------------------------|
G|----------2-------2-------2---------2-----------2--------2--------2-------2---------|
D|-------2-------2-------2---------2------------2-------2--------2-------2-----------|
A|----3-------3--------3--------3------------2-------2---------2-------2-------------|
E|---------------------------------------------------------------------------------------|


(*)
e|-------2------2-------2--------2-------2----------------------|
B|-----------------------------------------------------------------|
G|-----------------------------------------------------------------|
D|-----------------------------------------------------------------|
A|----------------------------5--------4-------2h4p2-----------|
E|---5------4------2------------------------------------5--4----|

e|--------4--------4---------4-------4----------------------------|
B|------------------------------------------------------------------|
G|------------------------------------------------------------------|
D|-------------6---------------------------------------------------|
A|-----------------------7--------6-------4h6p4-----------------|
E|---4-----------------------------------------------7--6--4------|

e|--2------2-2-2------2---------------|
B|--2------2-2-2------2---------------|
G|--2------2-2-2------2---------------|
D|--2------2-2-2------2---------------| (2)
A|--4------4-4-4------3---------------|
E|--2------2-2-2------2---------------|

e|-----------------------------------------------------------------------------------------|
B|----------------------------------------------------------------------------------------|
G|----------2-------2-------2---------2-----------2--------2--------2-------2---------|
D|-------2-------2-------2---------2------------2-------2--------2-------2-----------|
A|----3-------3--------2--------2------------3-------3---------2-------2-------------|
E|---------------------------------------------------------------------------------------|

e|---------------------------------------------------------------------------|
B|---------------------------------------------------------------------------|
G|---------2----------------------------------------------------------------|
D|------2------------2-3-5--2-3-----2-----------------------------------|
A|---3---------3-5-----------------5-----3-5--2-3-----2----------------|
E|------------------------------------------------------5-----3-5---------|

e|---------------------------------------------------------------------------------------------------------|
B|----------------------------------------------------------------------------------------------------------|
G|--------------------------------------------------------2--------2----------2--------2------2-----------|
D|---------------------2-3----2-----------------------2--------2---------2--------2-------2-------2-----|
A|---2-3------2-3-5-------5----5-3-2-----------3--------3---------2---------3-------2-------3----3-|
E|---------5-------------------------------5-3-2----------------------------------------------------------|

e|---------------------------------------------------------------------------|
B|---------------------------------------------------------------------------|
G|--------2-------2-------2---------2--------2--------2-------------------|
D|-----3-------3-------3---------4--------4-------4--------2--2---------|
A|---4-------4------4---------5--------5--------5-------------------------|
E|---------------------------------------------------------------------------|

e|-----------------------------------------------------------------------------------------------------|
B|-----------------------------------------------------------------------------------------------------|
G|-----------2---------2----------2----------2--------2----------2---------2-------2-------2------|
D|-------2----------2---------2-----------2--------2----------2---------2--------2------2---------|
A|----3----------3---------3-----------2---------3---------2---------3--------2-------2-----------|
E|------------------------------------------------------------------------------------------------------|


then repeat from (*) (with some variations that I don't have the time to consider them now)


..this is the last chord before distortion:

e|----------------2-----------------------------------------------------------|
B|----------------2-----------------------------------------------------------|
G|----------2----2-------------------------------------------------------------|
D|-------2-------2-------------------------------------------------------------|
A|-----2---------2-------------------------------------------------------------|
E|---------------------------------------------------------------------------|