#1
Okay, it's not really Lamb of God but Mark Morton, the lead guitarist of Lamb of God. He does some lessons on GuitarWorld and this one video sounds really cool. He plays it slowly and I think I have it right, but it just doesn't sound right. I'd like another persons take on this:

http://www.youtube.com/watch?v=fcVVfXN3RK8
R.I.P. Ronnie James Dio. Supplied amazing music to both me and my mother.

He will be missed.
#2
e--------------------------------------------------------------------
B----------------------------------20-------------------------------
G-----------------------------19------19---------------------------
D--------------------12\17---------------17/12-------------------
A--------5\10--13---------------------------------13--10/5------
D-5h8-----------------------------------------------------------8--

e-----------------------------------------------------------------------
B--------------------------------19------------------------------------
G----------------------------19----19---------------------------------
D-------------------12/16-------------16\12------------------------
A---------5/9h12------------------------------12-9\5---------------
D-5-4-7--------------------------------------------------7--4~~~--


straight from the dec 09 issue, sorry if i tabbed it sloppily :P

and the sweeping from the Grace solo:

e----------------------17--22p17---------------------20b----
B------------------18--------------18--------------------------
G--------------19----------------------19----------------------
D----------19------------------------------19------------------
A-17h20---------------------------------------20--------------
D-----------------------------------------------------------------
GO BRAVES
Last edited by Thespade22 at Oct 12, 2009,
#3
^ Dude, thanks a lot man. I actually was playing that riff slightly wrong. Thanks.
R.I.P. Ronnie James Dio. Supplied amazing music to both me and my mother.

He will be missed.