#1
Well, I've been seeing this set of notes in quite a few songs that I try to learn, most notably "Sweet Child O' Mine", "Always With Me, Always With You", and "No More Tears". It looks a lot like this:


|------10-------------10---------------------------------------|
|-(13)----13-10----------13p10---------------------------------|
|---------------12b14----------12b14-------------------------|
|----------------------------------------------------------------|
|--------------------------------------------------------------|
|--------------------------------------------------------------|


What would be a good finger positioning for this to play it good and fluid?
Quote by AlecMag
I love that song! You are god for putting it into a poem


Quote by LadyHellRaiser
Your hair is fckin epic, dude!!!

LOVE IT!!!!


Quote by rmr024
no ****in way!
I don't even know you but I think I love you...

So awesome.


I hate my fucking username.
#2
Quote by Guitarman015
Well, I've been seeing this set of notes in quite a few songs that I try to learn, most notably "Sweet Child O' Mine", "Always With Me, Always With You", and "No More Tears". It looks a lot like this:


|------10-------------10---------------------------------------|
|-(13)----13-10----------13p10---------------------------------|
|---------------12b14----------12b14-------------------------|
|----------------------------------------------------------------|
|--------------------------------------------------------------|
|--------------------------------------------------------------|


What would be a good finger positioning for this to play it good and fluid?


That's a pretty standard bluesy lick, there are two general ways of fingering it: barre the 10th with your first, do the bend with your second and the pull-off with your third or do the bend with your third and pull-off with the pinky.

I prefer the second way myself but as long as it sounds good and you can get it up to speed comfortably it doesn't make any difference that I can see.
R.I.P. My Signature. Lost to us in the great Signature Massacre of 2014.

Quote by Master Foo
“A man who mistakes secrets for knowledge is like a man who, seeking light, hugs a candle so closely that he smothers it and burns his hand.”


Album.
Legion.
#3

   4   1   4 1 3
|------10-------------10---------------------------------------|
|-(13)----13-10----------13p10---------------------------------|
|---------------12b14----------12b14-------------------------|
|----------------------------------------------------------------|
|--------------------------------------------------------------|
|--------------------------------------------------------------|
#4
Quote by KoenDercksen

4 1 4 1 3
|------10-------------10---------------------------------------|
|-(13)----13-10----------13p10---------------------------------|
|---------------12b14----------12b14-------------------------|
|----------------------------------------------------------------|
|--------------------------------------------------------------|
|--------------------------------------------------------------|

Agreed.