#1
hello everyone...

I request a song, "remember tomorrow" made by Metallica, its a COVER song made by Metallica, original song is by Iron Maiden.

im actually looking for the solo tab that Kirk Hammett plays at 3:50 of the song, its the 2nd solo of the song, plz anyone try finding that solo tab for any guitar pro versions

i found a normal tab in the browse section but im not good with getting it done =(
i also found another tab for guitar pro but the 2nd solo is not included, only the clean rythm part is included

here's the song, enjoy :
http://www.youtube.com/watch?v=1ZZBnZexM6E -> 2nd solo is at 3:50

this tab and the other guitars tabs of "the titanic overture" by WASP will be greatly appreciated, i posted a message of that song too

plz guys, give it a try
thank you

METALMANIAC98
Last edited by METALMANIAC98 at Oct 12, 2009,
#2
e|--------------------------------------------------------------------|
B|-15b17rb15b17~-15-13-12—-12h13p12~-----12h13p12\10-12p10--10-12p10--|
G|-----------------------14--------14b16------------------12----------|
D|--------------------------------------------------------------------|
A|--------------------------------------------------------------------|
E|--------------------------------------------------------------------|

e|----10-10~~~~--------------8-7~~-7h8h10~-8p7h8----------------------|
B|--10---10b12~---7-8-10-8-7--------------------10p8-7~-7h8p7---------|
G|12-------------9-------------------------------------------9-7-7h9~~|
D|--------------9-----------------------------------------------9-----|
A|-------------7------------------------------------------------------|
E|--------------------------------------------------------------------|
Quote by razorback91
Im sorry, I just don't see how you could argue that hardcore isn't metal. That just seems arrogant to me.

Yes, its its own kind of metal, but its still metal.