#1
It's "Wake Up" by Suicide Silence. I spent a long time trying to really tab it out right cuz not a soul on here was even really close to it. So take a look, and if you feel like tuning your guitar to Drop A, play along, and approve it cuz it got denied before and i have no idea why cause it's completely dead-on, like no lie lol. Thanks.
Quote by Briyan_15
I think this man has a reputation to defend and "poop head" is not in that reputation.


Quote by omegasus
RUSSELL! WHAT THE ****!!!!
#2
Here's the tab itself if you wanna take a look. Thank you in advance to anyone that does this. To spend like 5 hours tabbing it and have it rejected really baffled me and pissed me off haha. Again, thanks.
 

Key 
 ___________________
| h = hammer on     | 
| p = pull off      | 
| ~ = let ring      | 
| . = staccato      | 
| pm = palm mute    |  
| / \ = slide       | 
| b = bend          | 
| r = release bend  | 
| ~~~ = vibrato     | 
| _ = mute string   |
|___________________| 

Tuning (low to high): A-E-A-D-F#-B 

Intro 
|---------------------------------------------| 
|---------------------------------------------| 
|---------------------------------------------| 
|---------------------------------------------| 
|-1-1-4-4-4-4-4-4-1-1-4-4-4-4-4-4-1--1-1--1-1-| 
|-1-1-------------1-1-------------1--1-1--1-1-| 
pm* *             * *             *  * *  * * 

|-------------------------------------------| 
|-------------------------------------------| 
|-------------------------------------------| 
|-------------------------------------------| 
|-1-1-4-4-4-4-4-4-1-1-4-4-4-4-4-4-1----1----| 
|-1-1-------------1-1-------------1----1----| 
pm* *             * *             *    * 

                                            x4| 
|---------------------------------------------| 
|---------------------------------------------| 
|---------------------------------------------| 
|---------------------------------------------| 
|-1-1-4-4-4-4-4-4-1-1-4-4-4-4-4-4-1--1-1--1-1-| 
|-1-1-------------1-1-------------1--1-1--1-1-| 
pm* *             * *             *  * *  * * 


Riff 1            x3| 
|-------------------|---------------| 
|-------------------|---------------| 
|-------------------|---------------| 
|-------------------|--------.------| 
|-------------------|--------0------| 
|-0-0-0-0-0-3-~-~-~-|-000000-0------| 
pm* * *   *           ****** 


Riff 2                                     x4| 
|--------------------------------------------| 
|--------------------------------------------| 
|--------------------------------------------| 
|-4h7p4-------------4h7p4--------------------| 
|---------4p0-8-~-~---------4p0--------------| 
|-------0-----------------0-----0-0-3--b-r-~-| 
pm      *                 *     * * 


Riff 3 
|---------------------------------------------------------| 
|---------------------------------------------------------| 
|---------------------------------------------------------| 
|---------------------------------------------------------| 
|-1---1---1-------2---2-------1---1-------2---2---1h2---1-| 
|---0---0---0-0-0---0---0-0-0---0---0-0-0---0---0-----0---| 
pm  *   *   * * *   *   * * *   *   * * *   *   *     * 


Riff 4 
|-----------------------------------------------------------------| 
|-----------------------------------------------------------------| 
|-----------------------------------------------------------------| 
|-----------------------------------------------------------------| 
|-4h5p4---4-------5-3-3-3-3-3-3-3-2---2---2-------1---1---1h2---1-| 
|-------4---4-5-4-5-3-3-3-3-3-3-3---0---0---0-0-0---0---0-----0---| 
pm      *   * * * * * * * * * * *   *   *   * * *   *   *     * 

|-----------------------------------------------------------------| 
|-----------------------------------------------------------------| 
|-----------------------------------------------------------------| 
|-----------------------------------------------------------------| 
|-4h5p4---4-------5-5-5-5-5-5-5-5-2---2---2-------1---1---1h2---1-| 
|-------4---4-5-4-5-5-5-5-5-5-5-5---0---0---0-0-0---0---0-----0---| 
pm      *   * * * * * * * * * * *   *   *   * * *   *   *     *

|-----------------------------------------------------------------| 
|-----------------------------------------------------------------| 
|-----------------------------------------------------------------| 
|-----------------------------------------------------------------| 
|-4h5p4---4-------5-3-3-3-3-3-3-3-2---2---2-------1---1---1h2---1-| 
|-------4---4-5-4-5-3-3-3-3-3-3-3---0---0---0-0-0---0---0-----0---| 
pm      *   * * * * * * * * * * *   *   *   * * *   *   *     * 

|---------------------------------| 
|---------------------------------| 
|---------------------------------| 
|---------------------------------| 
|-4h5p4---4-------5-5-5-5-5-5-5-5-| 
|-------4---4-5-4-5-5-5-5-5-5-5-5-| 
pm      *   * * * * * * * * * * * 

|-----------------------------------------------| 
|-----------------------------------------------| 
|-----------------------------------------------| 
|-----------------------------------------.-----| 
|-4-5-4-0-4-3-3-3-4-5-4-0-4-3-3-3-4-5-4-0-0-----| 
|-4-5-4-0-4-3-3-3-4-5-4-0-4-3-3-3-4-5-4-0-0-----| 
pm* * * * * * * * * * * * * * * * * * * * *


*Riff 2 (x4)* 


Bridge 
|-------------------------------| 
|-------------------------------| 
|-------------------------------| 
|-------------------------------| 
|----------------0--~--~--~--~--| 
|-0--~--~--~--~--0--~--~--~--~--| 


Interlude (Gtrs 1&2)                                      x8| 
|-----------------------------------------------------------| 
|-----------------------------------------------------------| 
|-----------------------------------------------------------| 
|-----------------------------------------------------------| 
|-66-6-6-6-~-66-6-6-6-~-66-666-44-4-4-4-~-44-4-4-4-~-44-444-| 
|-66-6-6-6-~-66-6-6-6-~-66-666-44-4-4-4-~-44-4-4-4-~-44-444-| 
pm** * * *   ** * * *   ** *** ** * * *   ** * * *   ** *** 

(Gtr 3)                                x3| 
|----------------------------------------| 
|----------------------------------------| 
|-7/6-6-6-6---9-/10-10----10-----9---9-9-| 
|-x-x-x-x-x-~-x---x--x--~--x--~--x-~-x-x-| 
|-5/4-4-4-4---7-/-8--8-----8--~--7---7-7-| 
|----------------------------------------|
 
|----------------------------------------------------| 
|----------------------------------------------------| 
|-14-14-14-14-14-----13-13-13-13-13-----13-----13-13-| 
|-x--x--x--x--x---~--x--x--x--x--x---~--x---~--x--x--| 
|-12-12-12-12-12-----11-11-11-11-11-----11-----11-11-| 
|----------------------------------------------------| (Gtr 3 plays twice) 


Solo Backing                                              x4| 
|-----------------------------------------------------------| 
|-----------------------------------------------------------| 
|-----------------------------------------------------------| 
|-----------------------------------------------------------| 
|-66-6-6-6-~-66-6-6-6-~-66-666-44-4-4-4-~-44-4-4-4-~-44-444-| 
|-66-6-6-6-~-66-6-6-6-~-66-666-44-4-4-4-~-44-4-4-4-~-44-444-| 
pm** * * *   ** * * *   ** *** ** * * *   ** * * *   ** *** 


Intro Riff                                  x3| 
|---------------------------------------------| 
|---------------------------------------------| 
|---------------------------------------------| 
|---------------------------------------------| 
|-1-1-4-4-4-4-4-4-1-1-4-4-4-4-4-4-1--1-1--1-1-| 
|-1-1-------------1-1-------------1--1-1--1-1-| 
pm* *             * *             *  * *  * * 

|-------------------------------------------| 
|-------------------------------------------| 
|-------------------------------------------| 
|-------------------------------------------| 
|-1-1-4-4-4-4-4-4-1-1-4-4-4-4-4-4-1----1----| 
|-1-1-------------1-1-------------1----1----| 
pm* *             * *             *    * 


Bridge 2                                    x4| 
|---------------------------------------------| 
|---------------------------------------------| 
|---------------------------------------------| 
|---.---------------.-------------------------| 
|-1-1-------------1-1-------------1--1-1--1-1-| 
|-1-1-------------1-1-------------1--1-1--1-1-| 
pm* *             * *             *  * *  * * 


Breakdown Ending                     x4| 
|--------------------------------------| 
|--------------------------------------| 
|--------------------------------------| 
|--------------------------------------| 
|-4-3-3---2-2-2--~--2-4-3-3---1-1-1_---| 
|-4-3-3---2-2-2--~--2-4-3-3---1-1-1_---| 
pm* * *   * * *     * * * *   * * * 

                                                                 x2| 
|------------------------------------------------------------------| 
|------------------------------------------------------------------| 
|------------------------------------------------------------------| 
|------------------------------------------------------------------| 
|-0-0_----------0-0_----------4-3-3---2-2-2--~--2-4-3-3---1-1-1_---| 
|-0-0_----------0-0_----------4-3-3---2-2-2--~--2-4-3-3---1-1-1_---| 
pm* *           * *           * * *   * * *     * * * *   * * * 

|-------------------------|| 
|-------------------------|| 
|-------------------------|| 
|-------------------------|| 
|-0-0_----------0-0_------|| 
|-0-0_----------0-0_------|| 
pm* *           * * 

Quote by Briyan_15
I think this man has a reputation to defend and "poop head" is not in that reputation.


Quote by omegasus
RUSSELL! WHAT THE ****!!!!
Last edited by Nor'Easterbass at Oct 16, 2009,
#3
the rule they claim to use is that if there's an existing tab that sounds close enough, they don't approve any new ones. or something like that. it's pretty lame.
Quote by archerygenious
Jesus Christ since when is the Pit a ****ing courtroom...

Like melodic, black, death, symphonic, and/or avant-garde metal? Want to collaborate? Message me!
#5
but the kid who tabbed out the only full version is so off it's unbelievable. i tried playing his version through and i got so fed up with it, i tabbed it myself lol. im just asking anyone who has clearance (has submitted 3 tabs of their own) to go rate it.
Quote by Briyan_15
I think this man has a reputation to defend and "poop head" is not in that reputation.


Quote by omegasus
RUSSELL! WHAT THE ****!!!!