#1
Hey guys, i understand basic tab, and i have been looking for some advance tab tutorial; if you have a link please post.

What does something like this mean: example from sweet child o mine:

I got the basic intro down, but what is gtr 2 doing, whats the E mean and the | and the / underneath.

Continuing through, I see +W, and E+Q

Is this formatting from the tab writing software and we can ingore or does it have some meaning -


Sorry for the stupid question. I see all these how to read tab tutorials, but in a lot of tab you have this extra stuff, which no tutorial seems to comment on?


Thx in advance -
Boyd


D5II
Gtr II
H E E E E E E E E E E E E
| | | | | | | | | | | |
/ / / / / / / / / / / /

E E E E E E E E E E E E E E E E
|-------------15----14----|-------------15----14-----|
|----15-------------------|----15--------------------|
|-------14-12----14----14-|-------14-12----14----14--|
|-12----------------------|-12-----------------------|
|-------------------------|--------------------------|
|-------------------------|--------------------------|


D
Gtr III
W +W
| |
/ /

Gtr II
Q. E +Q. E E E E E +E E E E
|--2---------2-(2)--------2-|--3p=2--2--3-(3)--2-------|
|--3---------3-(3)--------3-|--3--------3-(3)-----3----|
|--2---------2-(2)--------2-|--2--------2-(2)-----2--2-|
|--0---------0-(0)--------0-|--0---------------------0-|
|---------------------------|--------------------------|
|---------------------------|--------------------------|
#2
W = whole note / semibreve
H = half note / minim
Q = quarter note / crotchet
E = eighth note / quaver
S = sixteenth note / semiquaver
#3
Quote by blue_strat
W = whole note / semibreve
H = half note / minim
Q = quarter note / crotchet
E = eighth note / quaver
S = sixteenth note / semiquaver



K - makes sense - should have thought about that more -

how bout this above the intro part:

D5II
Gtr II
H E E E E E E E E E E E E
| | | | | | | | | | | |
/ / / / / / / / / / / /

is that some sort of down up strum pattern for d5II chord? played over the intro
#4
good question, i too didnt know this
Xbox Live GT: A7X Dan 09

Only Playing Gears Of War 2 ATM
#5
Quote by boyd98
K - makes sense - should have thought about that more -

how bout this above the intro part:

D5II
Gtr II
H E E E E E E E E E E E E
| | | | | | | | | | | |
/ / / / / / / / / / / /

is that some sort of down up strum pattern for d5II chord? played over the intro

strict down, half note in the beginning then eighth notes for the rest, yes.
My Gear:
Gibson Faded Flying V
"Dante's Inferno" Iceman
Fender Hot Rod Deluxe 112
etc.




Quote by freedoms_stain
I can't imagine anything worse than shagging to Mark Knopfler.

Maybe shagging Mark Knopfler, but that's about it.
#6
Quote by TK1
strict down, half note in the beginning then eighth notes for the rest, yes.


what tells you its down

|
/

not sure i understand that notation